PrimaNota.ru - самый крупный в мире бесплатный архив песенных текстов, аккордов, табулатур и нот


Jet - Come On Come On - аккорды и текст, таба, видео

Регистрация Запомнить меня
Войти через:  Facebook Google Twitter Vk Yandex Mail.ru

Jet - Come On Come On - аккорды и текст, таба, видео

Печатать
Просмотров: 151
Come On Come On
Jet
Artist- Jet
Song- Come On Come On
Album- Shine On

Tabbed by: Rubbersoul (Izpizdiconas@hotmail.com)
	   -->www.csoasis.com/phpBB/


Capo 2 (chords and riffs with capo)


A	x02220
Asus4	x02230
D	xx0232
G	320033
C	x32010
E	022100

riff 1 (capo 2)

e-------------|
B-------------|
G--5s4--------|
D------5s7----|
A-------------|
E-------------|


riff 2 (capo 2)

e-----0-3---0---------5-|
B-2-3---------3-2-------|
G-----------------2-2---|
D-----------------------|
A-----------------------|
E-----------------------|



Intro

A	Asus4	A	Asus4

Verse 1

       A			   Asus4
Got my hands in your pockets, I
Добавлено: 21.10.2013
Другие материалы по этой песне:
  • Аккорды и текст

Страница создана 14.06.2012
http://primanota.ru/jet/come-on-come-on-chords.htm
Привет, Гость.
Предлагаем пройти революционный курс по гитаре.
Подарок от PrimaNota.Ru, забирай!