PrimaNota.ru - самый крупный в мире бесплатный архив песенных текстов, аккордов, табулатур и нот


Jet Lag Gemini - Stepping Stone - таба, видео

Регистрация Запомнить меня
Войти через:  Facebook Google Twitter Vk Yandex Mail.ru

Jet Lag Gemini - Stepping Stone - таба, видео

Печатать
Просмотров: 145
Jet Lag Gemini - Stepping Stone (Solo)
http://www.jetlaggemini.com/

June 25th, 2007
By: Joe

Tuning: Half-Step Down

Tab Notation Index:
p=pull off
h=hammer on
b=bend
r=release bend
/=slide up or down
v=vibrato
~=let ring
t=tremolo picking
o=wah open
+=wah close
.=palm mute


Solo:

---------------------------------------------------------------|
-14b16--14b16r14--12vvvv--------14b16~--16r14p12-12h14vvvv-----|
---------------------------------------------------------------|
---------------------------------------------------------------|
---------------------------------------------------------------|
---------------------------------------------------------------|


------14-------------------------------------------------------|
-14b16--14b16r14b16r14---14-12-11-12-11----11----------11---11-|
----------------------------------------13----13-11-13---13----|
---------------------------------------------------------------|
---------------------------------------------------------------|
---------------------------------------------------------------|


*every t represents tremolo picking the note 8 times.
---------------------------------------19-------19-------19----|
-12-11-12-14t-15t-17t-19b20r19---16-17----16-17----16-17-------|
---------------------------------------------------------------|
---------------------------------------------------------------|
---------------------------------------------------------------|
---------------------------------------------------------------|


-------19-------19----19b21~--19vvv--19-18p16-18-16------------|
-16-17----16-17----16-------------------------------16~--------|
---------------------------------------------------------------|
---------------------------------------------------------------|
---------------------------------------------------------------|
---------------------------------------------------------------|

(Turn on wah)
             +         . . . . . . . . . . o
-----------------------------------------------------6-7-------|
-17~---16~---9~----------------------------------7-9-----------|
-------------11b13~----------------6---6-8-6-8-9---------------|
-----------------------6-8-9-6-8-9---8-------------------------|
---------------------------------------------------------------|
---------------------------------------------------------------|

                                        o     +     o
-16vvvv--16p14p12--16p14p12--19vvvv--19p18p16-18p16p14---------|
-------------------------------------------------------14b16~--|
---------------------------------------------------------------|
---------------------------------------------------------------|
---------------------------------------------------------------|
---------------------------------------------------------------|
Добавлено: 03.07.2012
Вам также может быть интересно:
Другие материалы по этой песне:
  • Аккорды и текст

Страница создана 03.07.2012
http://primanota.ru/jet-lag-gemini/stepping-stone-chords.htm
Привет, Гость.
Предлагаем пройти революционный курс по гитаре.
Подарок от PrimaNota.Ru, забирай!