PrimaNota.ru - самый крупный в мире бесплатный архив песенных текстов, аккордов, табулатур и нот


Jet Harris - Scarlett Ohara - таба, видео

Регистрация Запомнить меня
Войти через:  Facebook Google Twitter Vk Yandex Mail.ru

Jet Harris - Scarlett Ohara - таба, видео

Печатать
Просмотров: 42
-------------------------------------------------------------------------------
                             Scarlett O'Hara - Jet Harris and Tony Meehan
-------------------------------------------------------------------------------
Tabbed by: bnna
E-mail: alexmegura@yahoo.com

Tuning: Standard
 Intro                             Main Theme
e|--------------------------|-----------------------------------------------------|
B|----5-7-8-7------5-7-8-7-|------------------------------------------------------|
G|----6-7-9-7------6-7-9-7-|------------------------------------------------------|
D|--5------------5---------|---------------------4-------------------------4------|
A|-------------------------|-7-5-4------------------7----7-5-4-----------------7--|
E|5-----------5------------|5-------7-5-7-5-0-0-5------5--------7-5-7-5-0-0-5-----|

e|-----------------------------------------------------------------------------|
B|-----------------------------------------------------------------------------|
G|-----------------------------------------------------------------------------|
D|--7-5-4-------------7-7-6-4---------------------------4---4-------4----------|
A|5-------7-5-7-5-7s9---------7-5-4-----7-5-4---------4---7---7---7---7-4---4--|
E|----------------------------------7-5-------7-5-7-5-----------5---------5----|

 After the instrumental break, he does this part (transition riff)
e|------------------------------------------------------------------------------------|
B|------------------------------------------------------------------------------------|
G|------------------------------------------------------------------------------------|
D|---5-5-5-6-6-6-7--------------------------------------------------------------------|
A|------------------------------------------------------------------------------------|
E|------------------------------------------------------------------------------------|

Song Structure:

Intro x 1
Main Theme x 1
Orchestra Break
Transition Riff x 1
Main Theme x 1
Drum Solo
Orchestra Break
Transition Riff
Main Theme x1

************************************

| /   slide up
| \   slide down
| h   hammer-on
| p   pull-off
| ~   vibrato
| +   harmonic
| x   Mute note
| b   Bend
| pb  Pre-bend
| br  Bend release
| pbr Pre-bend release
| brb Bend release bend

************************************
Добавлено: 12.11.2015
Вам также может быть интересно:
Другие материалы по этой песне:

Страница создана 13.10.2014
http://primanota.ru/jet-harris/scarlett-ohara-chords.htm
Привет, Гость.
Предлагаем пройти революционный курс по гитаре.
Подарок от PrimaNota.Ru, забирай!