PrimaNota.ru - самый крупный в мире бесплатный архив песенных текстов, аккордов, табулатур и нот


Jet Harris - Diamonds - таба, бас-таба, видео

Регистрация Запомнить меня
Войти через:  Facebook Google Twitter Vk Yandex Mail.ru

Jet Harris - Diamonds - таба, бас-таба, видео

Печатать
Просмотров: 156
Уроки эстрадного вокала в Санкт-Петербурге
Авторы музыки: Jerry Lordan

-------------------------------------------------------------------------------
                             SONG NAME - Band Name
-------------------------------------------------------------------------------
Tabbed by: bnna
E-mail: alexmegura@yahoo.com

Tuning: Tune guitar down full step ( D G C F A D)

    Main Theme:

e|------------------------------------------------------------------------------|
B|------------------------------------------------------------------------------|
G|------------------------------------------------------------------------------|
D|-------2-0------------------------------------2-5-2-5-2-5-2-5-2-5-5-2-0--0----|
A|-----2-----2-0---0-0-0-2-0--0-0--0-2-0------2---------------------------2--2--|
E|-0-3-----------3----3------3----3------3-0-3----------------------------------|

e|--------------------------------------------------|
B|--------------------------------------------------|
G|--------------------------------------------------|
D|---2-----------------------------------------4-2--|
A|1s2--2s1-1-1-1-0--0-0-0---0-0-0--0-2-2-5-4-2------|
E|-----------------3-----3-2------3-----------------|
Ending:

e|--------------|
B|--------------|
G|--------------|
D|--------------|    x3
A|--------------|
E|--(0--3-3-0)--|

    Structure:

 Main Theme x2
 Horn Section/Melody x2
 Drum Solo
 Main Theme x1
 Ending

************************************

| /   slide up
| \   slide down
| h   hammer-on
| p   pull-off
| ~   vibrato
| +   harmonic
| x   Mute note
| b   Bend
| pb  Pre-bend
| br  Bend release
| pbr Pre-bend release
| brb Bend release bend

************************************
Добавлено: 12.11.2015
Другие материалы по этой песне:

Страница создана 01.06.2012
http://primanota.ru/jet-harris/diamonds-chords.htm
Привет, Гость.
Предлагаем пройти революционный курс по гитаре.
Подарок от PrimaNota.Ru, забирай!