PrimaNota.ru - самый крупный в мире бесплатный архив песенных текстов, аккордов, табулатур и нот


Jesus Lizard - Thumper - таба, видео

Регистрация Запомнить меня
Войти через:  Facebook Google Twitter Vk Yandex Mail.ru

Jesus Lizard - Thumper - таба, видео

Печатать
Просмотров: 90
The Jesus Lizard
Thumper: Shot

Tune Down 1/2 step (Db Ab Db Gb Bb Eb)
Pulm Mute: P

Main Riff:
Eb----------------------------------------------------------------|
Bb----------------------------------------------------------------|
Gb----------------------------------------------------------------|
Db---------3---------------------5---2-------------3------2-------|
Ab----5----------5--------------------------5---------------------|
Db--2----2----2-2----2-2-2-2-2-2---------2------2-----2-----------|
          P          P         P  P          P  P  P  P   P  P                     P     
        P            P

Eb------------------------------------|
Bb------------------------------------|
Gb------------------------------------|
Db---3-3-3-3-3/2----------------------|
Ab---3-3-3-3-3/2----------------------|
Db------------------------------------|

0:34
Eb-----------------------------------|
Bb-----------------------------------|
Gb---7--6--5-4--3--------------------|
Db---6--5--4-3--2--------------------|
Ab-----------------------------------|
Db-----------------------------------|

verse
Eb----------------------------------------------------------------|
Bb----------------------------------------------------------------|
Gb----------------------------------------------------------------|
Db---------3---------------------5---2-------------3------2-------|
Ab----5----------5--------------------------5---------------------|
Db--2----2----2-2----2-2-2-2-2-2---------2------2-----2-----------|
          P          P         P  P          P  P  P  P   P  P                     P     
        P           P

Eb------------------------------------|
Bb------------------------------------|
Gb------------------------------------|
Db---3-3-3-3-3/2----------------------|
Ab---3-3-3-3-3/2----------------------|
Db------------------------------------|

Chorus:
Eb--------------------------------------------------|
Bb--------------------------------------------------|
Gb---3--3--3--3-3--3-3------------------------------|
Db---3--3--3--3-3--3-3----2--0--2/3--2--0-----------|
Ab---1--0--1--0-1--1-1----2--0--2/3--2--0-----------|
Db------------------------2--0--2/3--2--0-----------|

Chorus:
Eb--------------------------------------------------|
Bb--------------------------------------------------|
Gb---3--3--3--3-3--3-3------------------------------|
Db---3--3--3--3-3--3-3----2--0--2/3--2--0-----------|
Ab---1--0--1--0-1--1-1----2--0--2/3--2--0-----------|
Db------------------------2--0--2/3--2--0-----------|


End:
Eb-----------------------------------|
Bb-----------------------------------|
Gb---7--6--5-4--3--------2~ ~ ~------|
Db---6--5--4-3--2--------1~ ~ ~------|
Ab-----------------------------------|
Db-----------------------------------|
Добавлено: 26.07.2012
Другие материалы по этой песне:
  • Аккорды и текст

Страница создана 26.07.2012
http://primanota.ru/jesus-lizard/thumper-chords.htm
Привет, Гость.
Предлагаем пройти революционный курс по гитаре.
Подарок от PrimaNota.Ru, забирай!