PrimaNota.ru - самый крупный в мире бесплатный архив песенных текстов, аккордов, табулатур и нот


Jesus Lizard - South Mouth - текст песни, бас-таба, видео

Регистрация Запомнить меня
Войти через:  Facebook Google Twitter Vk Yandex Mail.ru

Jesus Lizard - South Mouth - текст песни, бас-таба, видео

Печатать
Просмотров: 110
Уроки эстрадного вокала в Санкт-Петербурге
Авторы музыки: Duane Denison, David Yow, Carey McNeilly, David Sims
Авторы текста: Duane Denison, David Yow, Carey McNeilly, David Sims
-------------------------------------------------------------------------------
                             South Mouth - The Jesus Lizard
-------------------------------------------------------------------------------
Tabbed by: 72kilogramma
E-mail: yslvck77@gmail.com 

Tuning: eadg

main part 1:

G-------------------------------|
D-------------------------------|
A----------33h5p3---------33h5p3|
E-5--55-5--------5--55-5--------|

main part 2:

G-------------------------------|
D-------------------------------|
A-------3--33h5p3------3--33h5p3|
E-5--55----------5--55----------|

bridge 1:

G---------------------------------|
D---------------------7-5-3-------|
A-5------------5--------------0-2-|
E---------------------------3-----|

G---------------------------|
D---------------------------|
A-3------------3------------|
E---------------------------|

bridge 2:

G-------------------------|
D-------------------------|
A-3-3---3-3---3-3---3-3---|
E-------------------------|

chorus 1:

G------------------------|
D777777------------------|
A------777777333333------|
E------------------333333|

chorus 2:

G------------------------121212121212|
D------------101010101010------------|
A------777777------------------------|
E555555------------------------------|

chorus 2a:

G------------|
D------------|
A------777777|
E555555------|

main part 1 x8
main part 2 x8
chorus 1 x2
main part 1 x8
main part 2 x8
chorus 1 x2
main part 1 x8
bridge 1 x1
chorus 1 x4
chorus 2 x3
chorus 2a x1
bridge 2 x5
main part 1 x8
main part 2 x8
bridge 1 x1



| /  slide up
| \  slide down
| h  hammer-on
| p  pull-off
| ~  vibrato
| +  harmonic
| x  Mute note
===============================================================================
Добавлено: 10.02.2016
Другие материалы по этой песне:
  • Аккорды и текст

Страница создана 08.07.2012
http://primanota.ru/jesus-lizard/south-mouth-chords.htm
Привет, Гость.
Предлагаем пройти революционный курс по гитаре.
Подарок от PrimaNota.Ru, забирай!