PrimaNota.ru - самый крупный в мире бесплатный архив песенных текстов, аккордов, табулатур и нот


Jesus Lizard - Nub - текст песни, бас-таба, видео

Регистрация Запомнить меня
Войти через:  Facebook Google Twitter Vk Yandex Mail.ru

Jesus Lizard - Nub - текст песни, бас-таба, видео

Печатать
Просмотров: 195
Уроки эстрадного вокала в Санкт-Петербурге
Авторы музыки: Duane Denison, David Yow, Carey McNeilly, David Sims
Авторы текста: Duane Denison, David Yow, Carey McNeilly, David Sims
-------------------------------------------------------------------------------
			                              NUB  - The Jesus Lizard
-------------------------------------------------------------------------------

Tabbed By: Steven S.
e-mail: letsbeneurotik@gmail.com

Tuning: EADG

Excellent song. I realized there were no bass tabs, so I decided to tab this feller out.
There's not really much of a structure, so here's what to play in order.

INTRO/VERSE
[0:10 - 1:05]  Enter w/ drums
G|---------------------------------------------------------------------------|
D|-----------------1---------------------------------------------------------|
A|-2-2-2302-2-2-232----------------------------------------------------------|
E|---------------------------------------------------------------------------|

PRE-CHORUS 
[1:06 - 1:18] Play x 4
G|---------------------------------------------------------------------------|
D|---------------------------------------------------------------------------|
A|-2-2-2302-2-2--------------------------------------------------------------|
E|-------------3-2-----------------------------------------------------------|

CHORUS
[1:19 - 1:30] Play x 16 
(This is just a guess. I can't really hear what he's playing. This sounds right, though.)
G|---------------------------------------------------------------------------|
D|---------------------------------------------------------------------------|
A|-3/555---------------------------------------------------------------------|
E|---------------------------------------------------------------------------|

VERSE
[1:31 - 2:08]
G|---------------------------------------------------------------------------|
D|-----------------1---------------------------------------------------------|
A|-2-2-2302-2-2-232----------------------------------------------------------|
E|---------------------------------------------------------------------------|

PRE-CHORUS 
[2:09 - 2:18] Play x 3
G|---------------------------------------------------------------------------|
D|---------------------------------------------------------------------------|
A|-2-2-2302-2-2--------------------------------------------------------------|
E|-------------3-2-----------------------------------------------------------|

LAST BAR
G|---------------------------------------------------------------------------|
D|---------------------------------------------------------------------------|
A|-2-2-2302-2-2--------------------------------------------------------------|
E|-------------3-1~----------------------------------------------------------|

| /  slide up
| \  slide down
| h  hammer-on
| p  pull-off
| ~  vibrato
| +  harmonic
| x  Mute note
===============================================================================
Добавлено: 14.04.2012
Другие материалы по этой песне:
  • Аккорды и текст

Страница создана 14.04.2012
http://primanota.ru/jesus-lizard/nub-chords.htm
Привет, Гость.
Предлагаем пройти революционный курс по гитаре.
Подарок от PrimaNota.Ru, забирай!