PrimaNota.ru - самый крупный в мире бесплатный архив песенных текстов, аккордов, табулатур и нот


Jesus Lizard - Needles For Theets - таба, видео

Регистрация Запомнить меня
Войти через:  Facebook Google Twitter Vk Yandex Mail.ru

Jesus Lizard - Needles For Theets - таба, видео

Печатать
Просмотров: 95
Hope they are close... Enjoy

Timing might be a little off just listen to the sone

/ slide up
\ slide dwn
P.M. * note to palm mute
x muted string
e -high e
E -fat E


INTRO:
e|-------------------------|
b|-------------------------|
g|-------------------------| X4
d|---2-2-3-3-2-2-3-3-2-3/6-| 
a|---2-2-3-3-2-2-3-3-2-3/6-| 
E|---0-0-1-1-0-0-1-1-0-1/4-|
 P.M * * * * * * * * *

Verse 1:

Just an E and F Couldnt tab out the timing.

Bridge 1:
e|---------------------------|--------------------------|
b|---------------------------|--------------------------|
g|---------------------666---|---------------------888--| x2
d|---2-2-3-3-2-2-3-3-2-666---|---2-2-3-3-2-2-3-3-2-888--|
a|---2-2-3-3-2-2-3-3-2-444---|---2-2-3-3-2-2-3-3-2-666--|
E|---0-0-1-1-0-0-1-1-0-------|---0-0-1-1-0-0-1-1-0------|
 P.M * * * * * * * * *     P.M * * * * * * * * *

Chorus:

e|--10-10-10-10--x-------x---------x----------|
b|--10-10-10-10--x-------x---------x----------|
g|--10-10-10-10--x-9999--x6-6-6-6--x----------| x2
d|--10-10-10-10--x-8888--x6-6-6-6--x-6-6-6-6--|
a|---8--8--8--8--x-9999--x4-4-4-4--x-6-6-6-6--|
E|---------------x-------x---------x-4-4-4-4--|

Post Chorus fill:
Dont know if this is bass or guitar but

e|------------|
b|------------|
g|------------| x4
d|------------|
a|------------|
E|--1-1-6-4-6-|

Pre-Verse 2: (same as intro)
e|-------------------------|
b|-------------------------|
g|-------------------------| X2
d|---2-2-3-3-2-2-3-3-2-3/6-| 
a|---2-2-3-3-2-2-3-3-2-3/6-|
E|---0-0-1-1-0-0-1-1-0-1/4-|
 P.M * * * * * * * * *

Verse 2:
e|------------------------------------|
b|------------------------------------|
g|---9-9-10-10-10-10-10-10-10-9-9-9---| x4
d|------------------------------------|
a|------------------------------------|
E|------------------------------------|

Brige 2:
e|----------------------------------|--------------------------------|
b|----------------------------------|--------------------------------|
g|---9-9-10-10-10-10-10-10-10-666---|--9-9-10-10-10-10-10-10-10-888--| x2
d|----------------------------666---|---------------------------888--|
a|----------------------------444---|---------------------------666--|
E|----------------------------------|--------------------------------|


Chorus x2
Post Chorus fill x4
Pre-Verse 2 x2

Last Bridge:

I think just a Emaj and Fmaj check timing

  Emaj  Fmaj
e--7------8
b--8------9
g--9-----10
d--9-----10
a--7------8
E----------

Chorus x4
end on F
   F
e--1
b--1
g--2
d--3
a--3
E--1


Thats it... the only thing im not sure on is the last bridge... i thing there are some C#'s and D#'s like the bridge
but anyway have fun


LCDE

Listen, Challenge, Decrypt, Enjoy
     
Добавлено: 21.09.2013
Другие материалы по этой песне:
  • Аккорды и текст

Страница создана 21.09.2013
http://primanota.ru/jesus-lizard/needles-for-theets-chords.htm
Привет, Гость.
Предлагаем пройти революционный курс по гитаре.
Подарок от PrimaNota.Ru, забирай!