PrimaNota.ru - самый крупный в мире бесплатный архив песенных текстов, аккордов, табулатур и нот


Jesus Lizard - Eyesore - таба, видео

Регистрация Запомнить меня
Войти через:  Facebook Google Twitter Vk Yandex Mail.ru

Jesus Lizard - Eyesore - таба, видео

Печатать
Просмотров: 61
Intro

D|---------------|------------------|------------------|-----------------|
A|--7------------|--7---------------|----5-------------|-----------------|
F|--6------------|--6-5-------------|--5-4-------------|--5-2------------|
C|--4------------|--4-4-------------|--4-2-------------|--4-0------------|
G|---------------|------------------|------------------|-----------------|
D|---------------|------------------|------------------|-----------------|

Verse

D|----------------------------------|------------------------------------|
A|----------------------------------|------------------------------------|
F|-----7-------7-------7-----8-8-8--|-----7-------7-------7-----8---8----|
C|---6---6---6---6---6---6---7-7-7--|---6---6---6---6---6---6---7---7----|
G|-4-------4-------4-------4-5-5-5--|-4-------4-------4-------4-5---5----|
D|----------------------------------|------------------------------------|

Chorus

D|-------------------------------------|
A|----5-5------------------------------|
F|----4-4---5-5-5-5---4-4--------------|
C|----2-2---5-5-5-5---4-4---5-5-5-5----|
G|----------3-3-3-3---2-2---5-5-5-5----|
D|--------------------------3-3-3-3----|

Bridge

D----------------------------------|
A----------------------------------|
F--7-9-9-9-9-7-7-7-7-9-9-9-9-7-7-6-|
C--5-7-7-7-7-5-5-5-5-7-7-7-7-5-5-4-|
G----------------------------------|
D----------------------------------|


Solo

D-------------------------------------|------------------------------------|
A-------------------------------------|------------------------------------|
F--7-9-9-9-9-7-7-7-7-9-9-9-9-12-12-12-|-8-8-8-8-8-8-8-8-11-11-11-11-9--12--|
C--5-7-7-7-7-5-5-5-5-7-7-77-10-10-10-|-6-6-6-6-6-6-6-6--9--9--9--9-7--10---|
G-------------------------------------|------------------------------------|
D-------------------------------------|------------------------------------|

----------------------------------|
----------------------------------|
--8-8-8-8-8-8-8-8-7-7-7-7-7-7-7-7-|
--6-6-6-6-6-6-6-6-5-5-5-5-5-5-5-5-|
----------------------------------|
----------------------------------|

Ending

D|------------------------------------|------------------------------------|
A|-------7-----8-8-8-----7-----8-8-8--|------------------------------------|
F|-----6---6---7-7-7---6---6---7-7-7--|--7---------------------------------|
C|---4-------4-5-5-5-4-------4-5-5-5--|--6---------------------------------|
G|------------------------------------|--4---------------------------------|
D|------------------------------------|------------------------------------|
Добавлено: 12.06.2013
Другие материалы по этой песне:
  • Аккорды и текст

Страница создана 12.06.2013
http://primanota.ru/jesus-lizard/eyesore-chords.htm
Привет, Гость.
Предлагаем пройти революционный курс по гитаре.
Подарок от PrimaNota.Ru, забирай!