PrimaNota.ru - самый крупный в мире бесплатный архив песенных текстов, аккордов, табулатур и нот


Jesus Lizard - Blue Shot - бас-таба, видео

Регистрация Запомнить меня
Войти через:  Facebook Google Twitter Vk Yandex Mail.ru

Jesus Lizard - Blue Shot - бас-таба, видео

Печатать
Просмотров: 59
-------------------------------------------------------------------------------
                             Blue Shot - The Jesus Lizard
-------------------------------------------------------------------------------
Tabbed by: 72kilogramma
E-mail: yslvck77@gmail.com 

Tuning: eadg

G|--9-----8---9-8-------------------|
D|----8-8---8-----8-8-8-8-8-8-8-8-8-| x8
A|----------------------------------|
E|----------------------------------|

G|--9-----8---9-8-------------------|
D|----8-8---8-----8-------------1---|
A|----------------------1---1h3---3-|
E|------------------1h3---3---------|

G|----------------------------------|
D|--2-----1---2-1---------------1---| x8
A|----1-1---1-----1-----1---1h3---3-|
E|------------------1h3---3---------|

G|----------------------------------------------|
D|----------------------------------------------|
A|----------------------------------------------|
E|--1-1---1-1-1---1-1-1---1-1-1---1-1-1---1-1-1-|

G|--------------------|
D|--------------------|
A|--------------------|
E|--1-s13~s----1---4--|

G|-------------|-------------|-------------|-------------|
D|-------------|-------------|-------------|-------------|
A|-3--x3-----1-|-1--x1-------|-------------|-----------4-|
E|--------4----|--------4--4-|-1--x1--4--4-|-1--x1--1----|

G|-------------|-------------|-------------|-------------|
D|-------------|-------------|-------------|-------------|
A|-4--x4-----1-|-1--x1-------|-------------|-----------3-|
E|--------4----|--------4--4-|-1--x1--4--4-|-1--x1--1----|

G|-------------|-------------|-------------|-------------|
D|-------------|-------------|-------------|-------------|
A|-3--x3-----1-|-1--x1-------|-------------|-----------3-|
E|--------4----|--------4--4-|-1--x1--4--4-|-1--x1--1----|

G|-------------|-------------|---------------------------------|
D|-------------|-------------|-----------------------------1---|
A|-3--x3-----1-|-1--x1-----1-|-3-3-3-3-3-3-3-3-----1---1h3---3-|
E|--------4----|--------4----|-----------------1h3---3---------|

G|----------------------------------|
D|--2-----1---2-1---------------1---| x7
A|----1-1---1-----1-----1---1h3---3-|
E|------------------1h3---3---------|

G|------------------------------1---|
D|--2-----1---2-1-----------1h3---3-|
A|----1-1---1-----1-----1-----------|
E|------------------1h3---3---------|

G|-------------------------------8-10-8----8------------|
D|--6-8-6---6---------------8-10--------10---10-6-8-6---|
A|--------8---8-6-------------------------------------8-|
E|----------------8-4h6-6h8-----------------------------|

G|----------------8-10-10-13-13-15-15-18-------------------|
D|-------------10------------------------15-18-13-15-------|
A|---------6-8---------------------------------------13-15-|
E|-4h6-6h8-------------------------------------------------|

G|------------------------------------------|
D|------------------------------------------|
A|--13-15-------6-8-------------------------|
E|--------13-15-----6-8-4-6-6-6h8-6h8p6-4-1-|

G|----------------------------------------------|
D|----------------------------------------------|
A|----------------------------------------------|
E|--1-1---1-1-1---1-1-1---1-1-1---1-1-1---1-1-1-|

G|--------------------|
D|--------------------|
A|--------------------|
E|--1-s13~s----1---4--|


G|-------------|-------------|-------------|-------------|
D|-------------|-------------|-------------|-------------|
A|-3--x3-----1-|-1--x1-------|-------------|-----------4-|
E|--------4----|--------4--4-|-1--x1--4--4-|-1--x1--1----|

G|-------------|-------------|-------------|-------------|
D|-------------|-------------|-------------|-------------|
A|-4--x4-----1-|-1--x1-------|-------------|-----------3-|
E|--------4----|--------4--4-|-1--x1--4--4-|-1--x1--1----|

G|-------------|-------------|-------------|-------------|
D|-------------|-------------|-------------|-------------|
A|-3--x3-----1-|-1--x1-------|-------------|-----------3-|
E|--------4----|--------4--4-|-1--x1--4--4-|-1--x1--1----|

G|-------------|-------------|---------------------------------|
D|-------------|-------------|-----------------------------1---|
A|-3--x3-----1-|-1--x1-------|-3-3-3-3-3-3-3-3-----1---1h3---3-|
E|--------4----|--------4--4-|-----------------1h3---3---------|

G|-----------------------------1---|
D|---------------------1---1h3---3-|
A|-3-3-3-3-3-3-3-3-1h3---3---------|
E|---------------------------------|

G|---------------------------------|
D|---------------------------------|
A|---------------------------------|
E|-1-------------------------------|

G|---------------------------------|
D|-2-----1---2-1---------------1---| x4
A|---1-1---1-----1-----1---1h3---3-|
E|-----------------1h3---3---------|

G|-6-8-6---6-------------------1---|
D|-------8---8-6-------1---1h3---3-| x4
A|---------------8-1h3---3---------|
E|---------------------------------|

G|---------------------------------|
D|---------------------------------|
A|-1-------------------------------|
E|---------------------------------|

| /  slide up
| \  slide down
| h  hammer-on
| p  pull-off
| ~  vibrato
| +  harmonic
| x  Mute note
===============================================================================
Добавлено: 10.02.2016
Другие материалы по этой песне:
  • Аккорды и текст

Страница создана 10.02.2016
http://primanota.ru/jesus-lizard/blue-shot-chords.htm
Привет, Гость.
Предлагаем пройти революционный курс по гитаре.
Подарок от PrimaNota.Ru, забирай!