PrimaNota.ru - самый крупный в мире бесплатный архив песенных текстов, аккордов, табулатур и нот


Jesus Culture - Holy Spirit Live - таба, видео

Регистрация Запомнить меня
Войти через:  Facebook Google Twitter Vk Yandex Mail.ru

Jesus Culture - Holy Spirit Live - таба, видео

Печатать
Просмотров: 217
Tabbed By: Tadd Steffner
Email: Taddsteffner@gmail.com
Please enjoy. This is absolutely correct. The live version is in the key of G. 
Feedback is nice too. :)   

Intro. (Goes through verse 1 and 2 until chorus)

  [D]                                   

e -------------------|--2-------------------|
B -----------3-------|-----3-----3----------|
G -----2--------2----|--------------2-----2-| x2
D --0-----0--------0-|--------0--------0----|
A -------------------|----------------------|
E -------------------|----------------------|

  [G]
e -------------------|--2-------------------|
B -----------0-------|-----0-----0----------|
G -----0--------0----|--------------0-----0-| x2
D --0-----0--------0-|--------0--------0----|
A -------------------|----------------------|
E -------------------|----------------------|

Chorus:
D
Holy Spirit You are welcome here
G                                  Em    
Come flood this place and fill the atmosphere
D 
Your glory God is what our hearts long for
G                      Em
To be overcome by Your presence Lord.

Bridge:
D                               
Let us become more aware of Your presence
G
Let us experience the glory of Your goodness
Добавлено: 05.11.2013
Другие материалы по этой песне:
  • Аккорды и текст

Страница создана 05.11.2013
http://primanota.ru/jesus-culture/holy-spirit-live-chords.htm
Привет, Гость.
Предлагаем пройти революционный курс по гитаре.
Подарок от PrimaNota.Ru, забирай!