PrimaNota.ru - самый крупный в мире бесплатный архив песенных текстов, аккордов, табулатур и нот


Jesus Culture - The Burning Ones - Live - бас-таба, видео

Регистрация Запомнить меня
Войти через:  Facebook Google Twitter Vk Yandex Mail.ru

Jesus Culture - The Burning Ones - Live - бас-таба, видео

Печатать
Просмотров: 55
-----------------------------------------------------------------------------
                                          Artist - Jesus Culture
                                         ************************
                                        Song - Burning Ones - Live  
                                       ****************************
                                            Album - Consumed  
                                           ******************
                                          Tabbed By - Ayreon77
                                         **********************
-----------------------------------------------------------------------------
Tuning = Standard



01:21
CHORUS
*******
G|-----|-----|---|-----|-----|---|
D|-----|-----|---|-----|-----|---|
A|-2-2-|-----|---|-2-2-|-----|-2-|
E|-----|-2-2-|-3-|-----|-2-2-|---|


----------------------------------------------------
01:46
SMALL SOLO
***********
G|------------------------|------------------------|------------------------|------------------------|
D|------------------------|------------------------|------------------------|------------------------|
A|------------------------|------------------------|-5--5--5--5--5--5--5--5-|-5--5--5--5--5--5--5--5-|
E|-3--3--3--3--3--3--3--3-|-3--3--3--3--3--3--3--3-|------------------------|------------------------|X2


----------------------------------------------------
02:11
VERSE 2
********
G|------------------------|------------------------|------------------------|------------------------|
D|------------------------|------------------------|------------------------|------------------------|
A|------------------------|------------------------|-5--5--5--5--5--5--5--5-|-5--5--5--5--5--5--5--5-|
E|-3--3--3--3--3--3--3--3-|-3--3--3--3--3--3--3--3-|------------------------|------------------------|X2


----------------------------------------------------
02:37
CHORUS
*******
G|-------------------------|-------------------------|------------------------|------------------------|
D|-------------------------|-------------------------|------------------------|------------------------|
A|-2--2--2--2--2--2--2--2--|-------------------------|------------------------|------------------------|
E|-------------------------|-2--2--2--2--2--2--2--2--|-3--3--3--3--3--3--3--3-|-3--3--3--3--3--3--3--3-|X3


G|-------------------------|-------------------------|-------------------------|------------------------|
D|-------------------------|-------------------------|-------------------------|------------------------|
A|-2--2--2--2--2--2--2--2--|-------------------------|-2--2--2--2--2--2--2--2--|-2--2--2--2--2--2--2--2-|
E|-------------------------|-2--2--2--2--2--2--2--2--|-------------------------|------------------------|


NO BASS

----------------------------------------------------
03:52
CHORUS
*******
G|----------------------------|------------------------|------------------------|------------------------|
D|----------------------------|------------------------|------------------------|------------------------|
A|---s------------------------|------------------------|------------------------|------------------------|
E|-10\-3--3--3--3--3--3--3--3-|-5--5--5--5--5--5--5--5-|-7--7--7--7--7--7--7--7-|-5--5--5--5--5--5--5--5-|


G|------------------------|------------------------|------------------------|---------------------|
D|------------------------|------------------------|------------------------|---------------------|
A|------------------------|------------------------|------------------------|---------------------|
E|-3--3--3--3--3--3--3--3-|-5--5--5--5--5--5--5--5-|-7--7--7--7--7--7--7--7-|-9--9--9--9--9--9--9-|

04:18
G|------------------------|------------------------|------------------------|------------------------|
D|------------------------|------------------------|------------------------|------------------------|
A|------------------------|------------------------|------------------------|------------------------|
E|-3--3--3--3--3--3--3--3-|-5--5--5--5--5--5--5--5-|-7--7--7--7--7--7--7--7-|-5--5--5--5--5--5--5--5-|


G|------------------------|------------------------|------------------------|-----------------------------|
D|------------------------|------------------------|------------------------|--------------------s--------|
A|------------------------|------------------------|------------------------|-4--4--4--4--4--4--4\9-9-9-9-|
E|-3--3--3--3--3--3--3--3-|-5--5--5--5--5--5--5--5-|-7--7--7--7--7--7--7--7-|-----------------------------|


04:43 - Double Time
G|-----------------|-----------------|-----------------|-----------------|\
D|-5-5-5-5-5-5-5-5-|-5-5-5-5-5-5-5-5-|-7-7-7-7-7-7-7-7-|-7-7-7-7-7-7-7-7-| \
A|-----------------|-----------------|-----------------|-----------------|  \
E|-----------------|-----------------|-----------------|-----------------|   \
                                                                              X
                                                                              2
G|-----------------|-----------------|-----------------|-----------------|   /
D|-----------------|-----------------|-----------------|-----------------|  /
A|-----------------|-----------------|-----------------|-----------------| /
E|-7-7-7-7-7-7-7-7-|-7-7-7-7-7-7-7-7-|-2-2-2-2-2-2-2-2-|-2-2-2-2-2-2-2-2-|/


----------------------------------------------------
05:08
CHORUS
*******
G|---|
D|---|
A|---|
E|-3-|


----------------------------------------------------
05:34
CHORUS
*******
G|------------------------|------------------------|------------------------|------------------------|
D|------------------------|------------------------|------------------------|------------------------|
A|------------------------|------------------------|------------------------|------------------------|
E|-3--3--3--3--3--3--3--3-|-5--5--5--5--5--5--5--5-|-7--7--7--7--7--7--7--7-|-5--5--5--5--5--5--5--5-|


05:46
G|------------------------|------------------------|------------------------|----------------------------------|
D|------------------------|------------------------|------------------------|--------------------------s-------|
A|------------------------|------------------------|------------------------|-4-4-4-4-4-4-4-4-4-4-4-4-4\9-9-9-9|
E|-3--3--3--3--3--3--3--3-|-5--5--5--5--5--5--5--5-|-7--7--7--7--7--7--7--7-|----------------------------------|

05:59 - Double Time
G|-----------------|-----------------|-----------------|-----------------|\
D|-5-5-5-5-5-5-5-5-|-5-5-5-5-5-5-5-5-|-7-7-7-7-7-7-7-7-|-7-7-7-7-7-7-7-7-| \
A|-----------------|-----------------|-----------------|-----------------|  \
E|-----------------|-----------------|-----------------|-----------------|   \
                                                                              X
                                                                              2
G|-----------------|-----------------|-----------------|-----------------|   /
D|-----------------|-----------------|-----------------|-----------------|  /
A|-----------------|-----------------|-----------------|-----------------| /
E|-7-7-7-7-7-7-7-7-|-7-7-7-7-7-7-7-7-|-2-2-2-2-2-2-2-2-|-2-2-2-2-2-2-2-2-|/
                                     |
                                     |end do this                  
                                    G|---|       |---|
                                    D|---|       |---|
                                    A|---|       |---|
                                    E|-9-|       |-3-|X3 End........



ENJOY..............
Добавлено: 12.04.2016
Другие материалы по этой песне:
  • Аккорды и текст

Страница создана 12.04.2016
http://primanota.ru/jesus-culture/burning-ones-live-chords.htm
Привет, Гость.
Предлагаем пройти революционный курс по гитаре.
Подарок от PrimaNota.Ru, забирай!