PrimaNota.ru - самый крупный в мире бесплатный архив песенных текстов, аккордов, табулатур и нот


Jesus & Mary Chain - You Trip Me Up - аккорды и текст, видео

Регистрация Запомнить меня
Войти через:  Facebook Google Twitter Vk Yandex Mail.ru

Jesus & Mary Chain - You Trip Me Up - аккорды и текст, видео

Печатать
Просмотров: 172
You Trip Me Up
Jesus & Mary Chain
Title: You Trip Me Up
Band: The Jesus & Mary Chain
Album: Psychocandy (1985)

tabbed by scef (email: funnell_teen_spirit@yahoo.com)

short of getting the feedback effects spot on this
song is easy to play, it's the same chord progression
throughout...


chords
A5  577xxx
D5  x577xx
E5  x799xx


A5          D5   E5
sometimes        I walk
A5          D5   E5
sideways

(you get the idea)

at some point there is a (slightly) audible solo:
e-----------------|-----------------|
B-----------------|-----------------|
G-2-----2---2-2-4-|/6-2---2---2-2-4-|
D-----------------|-----------------|
A-----------------|-----------------|
E-----------------|-----------------|

e-----------------|-----------------|
B-----------------|-----------------|
G/6-2---2---2-2-4-|/6---6-6---6-4---|
D-----------------|-----------------|
A-----------------|-----------------|
E-----------------|-----------------|

e-----------------|-----------------|
B-----------------|-----------------|
G-2-----2---2-2-4-|/6-2---2---2-2-4-|
D-----------------|-----------------|
A-----------------|-----------------|
E-----------------|-----------------|

e-----------------|-----------------|
B-----------------|-----------------|
G/6-2---2---2-2-4-|/9-----7-----6---|
D-----------------|-----------------|
A-----------------|-----------------|
E-----------------|-----------------|

then there's so much feedback it's kinda tricky to
make out any more of it but just play around with that
chord progression...


     
Добавлено: 02.06.2013
Другие материалы по этой песне:
  • Аккорды и текст

Страница создана 28.02.2012
http://primanota.ru/jesus-and-mary-chain/you-trip-me-up-chords.htm
Привет, Гость.
Предлагаем пройти революционный курс по гитаре.
Подарок от PrimaNota.Ru, забирай!