PrimaNota.ru - самый крупный в мире бесплатный архив песенных текстов, аккордов, табулатур и нот


Jesus & Mary Chain - It's So Hard - текст песни, бас-таба, видео

Регистрация Запомнить меня
Войти через:  Facebook Google Twitter Vk Yandex Mail.ru

Jesus & Mary Chain - It's So Hard - текст песни, бас-таба, видео

Печатать
Просмотров: 122
Авторы: William Reid, Jim Reid

The Jesus and Mary Chain
It's So Hard
Psychocandy

Main Riff
G---------------------------|
D------------------------10-|
A-10--10--6--8--10--10-8----|
E---------------------------|

Riff Dos (00:46) X4
G-------------------------|
D-------------------------|
A-10-10-10-10-10-10-10-10-|
E-------------------------|

End Riff (There's a small pause about 2 measures before this)
G--------------------------------------|
D------------------------------10------|
A-10--10-10-6--8---10--10-10-8-----10~-|
E--------------------------------------|
Добавлено: 03.03.2012
Другие материалы по этой песне:
  • Аккорды и текст

Страница создана 03.03.2012
http://primanota.ru/jesus-and-mary-chain/its-so-hard-chords.htm
Привет, Гость.
Предлагаем пройти революционный курс по гитаре.
Подарок от PrimaNota.Ru, забирай!