PrimaNota.ru - самый крупный в мире бесплатный архив песенных текстов, аккордов, табулатур и нот


Jesus & Mary Chain - Cut Dead - текст песни, таба, видео

Регистрация Запомнить меня
Войти через:  Facebook Google Twitter Vk Yandex Mail.ru

Jesus & Mary Chain - Cut Dead - текст песни, таба, видео

Печатать
Просмотров: 138
Авторы: William Reid, Jim Reid

-------------------------------------------------------------------------------
                             CUT DEAD - The Jesus and Mary Chain
-------------------------------------------------------------------------------
Tabbed by: Kenny G
E-mail: kg8159@gmail.com

Tuning: standard

Intro:

   G                       C
   1 2 3 4 1 2 3 4 1 2 3 4 1 2 3 4
e|-3-------3-------3-------0--------|
B|-0----0--0----0--0----0--1--1-----|
G|-0--0----0--0----0--0----0----0---|
D|-0-------0-------0-------2--------|
A|-2-------2-------2-------3-3------|
E|-3-3-----3-3-----3-3--------------|

Verse:
   G       C
   1 2 3 4 1 2 3 4
e|-3-------0-------|
B|-0----0--1--1----|
G|-0--0----0----0--|
D|-0-------2-------|
A|-2-------3-3-----|
E|-3-3-------------|

"Cut Dead Your Messed Up Boy"    "Do do do do do do do"
   D        C         G            G
   1 2 3 4  1 2 3 4  1 2 3 4       1   2   3   4   1   2   3   4
e|-2--------0--------3-------------3---------------3------------|
B|-3----3-3-1--1--1--0----0--------0---------------0------------|
G|-2--2--2--0----0-0-0--0----------0---0---0-0-----0-------0---0|
D|-0-0------2--------0-------------0---------------0------------|
A|----------3-3------2-------------2---------------2------------|
E|-------------------3-3-----------3---------------3------------|


At "why can't you see" and "Do I still shine" you should STRUM the C and G chords more
That's all, thanks, let me know what you think.
Добавлено: 03.08.2015
Другие материалы по этой песне:
  • Аккорды и текст

Страница создана 27.07.2012
http://primanota.ru/jesus-and-mary-chain/cut-dead-chords.htm
Привет, Гость.
Предлагаем пройти революционный курс по гитаре.
Подарок от PrimaNota.Ru, забирай!