PrimaNota.ru - самый крупный в мире бесплатный архив песенных текстов, аккордов, табулатур и нот


Jesu - Weightless And Horizontal - текст песни, таба, видео

Регистрация Запомнить меня
Войти через:  Facebook Google Twitter Vk Yandex Mail.ru

Jesu - Weightless And Horizontal - текст песни, таба, видео

Печатать
Просмотров: 112
Авторы музыки: Justin Broadrick

Artist: Jesu
Song: Weightless and Horizontal
Album: Conqueror

Tuning: AEADGBe (dropped A)

Justin Broadrick uses a 7 string but the same sound can be achieved by
restringing a 6 string with the lower 6 strings of a 7 string set.

He also layers several guitar parts on the recordings. I've only tabbed the
most obvious parts. Further embelishments can be worked out by the player.

Verse
  A           G#         F#      C#     D           C#     B           C#
  1 + 2 + 3 + 4 +    1 + 2 + 3 + 4 +    1 + 2 + 3 + 4 +    1 + 2 + 3 + 4 +
e------------------|------------------|------------------|------------------|
B------------------|------------------|------------------|------------------|
G------------------|------------------|------------------|------------------|
D------------------|------------------|------------------|------------------|
A-0---12--12--11---|-11--9-9-9---4----|-5---5---5---4----|-2-----2-2---4----|
E-0---12--12--11---|-11--9-9-9---4----|-5---5---5---4----|-2-----2-2---4----|
A-0---12--12--11---|-11--9-9-9---4----|-5---5---5---4----|-2-----2-2---4----|

  D           C#     B           C#     D       *   C#     B
  1 + 2 + 3 + 4 +    1 + 2 + 3 + 4 +    1 + 2 + 3 + 4 +    1 + 2 + 3 + 4 +
e------------------|------------------|------------------|------------------|
B------------------|------------------|------------------|------------------|
G------------------|------------------|------------------|------------------|
D------------------|------------------|---------7--------|------------------|
A-5---5---5---4----|-2-----2-2---4----|-5---5---7---4----|-2-----2-2--------|
E-5---5---5---4----|-2-----2-2---4----|-5---5---5---4----|-2-----2-2--------|
A-5---5---5---4----|-2-----2-2---4----|-5---5---5---4----|-2-----2-2--------|

*=Dsus2

Break
  A
e------------------|
B------------------|
G------------------|
D------------------|
A-0----------------|
E-0----------------|
A-0----------------|

Bridge
  A       B
  1 + 2 + 3 + 4 +
e------------------|
B------------------|
G------------------|
D------------------|
A-7---7---9---9----|
E-5---5---7---7----|
A-0---0------------|

Outro
  A                  B                  D                  E
  1 + 2 + 3 + 4 +    1 + 2 + 3 + 4 +    1 + 2 + 3 + 4 +    1 + 2 + 3 + 4 +
e------------------|------------------|------------------|------------------|
B------------------|------------------|------------------|------------------|
G------------------|------------------|------------------|------------------|
D------------------|------------------|------------------|------------------|
A-0---0---0---0----|-2---2---2---2----|-5---5---5---5----|-7---7---7---7----|
E-0---0---0---0----|-2---2---2---2----|-5---5---5---5----|-7---7---7---7----|
A-0---0---0---0----|-2---2---2---2----|-5---5---5---5----|-7---7---7---7----|

  F#                 B                  D                  E
  1 + 2 + 3 + 4 +    1 + 2 + 3 + 4 +    1 + 2 + 3 + 4 +    1 + 2 + 3 + 4 +
e------------------|------------------|------------------|------------------|
B------------------|------------------|------------------|------------------|
G------------------|------------------|------------------|------------------|
D------------------|------------------|------------------|------------------|
A-9---9---9---9----|-2---2---2---2----|-5---5---5---5----|-7---7---7---7----|
E-9---9---9---9----|-2---2---2---2----|-5---5---5---5----|-7---7---7---7----|
A-9---9---9---9----|-2---2---2---2----|-5---5---5---5----|-7---7---7---7----|


Tabbed by Aleks
www.facebook.com/hesychasmsa
www.youtube.com/crystalred333
Добавлено: 27.04.2012
Другие материалы по этой песне:
  • Аккорды и текст

Страница создана 27.04.2012
http://primanota.ru/jesu/weightless-and-horizontal-chords.htm
Привет, Гость.
Предлагаем пройти революционный курс по гитаре.
Подарок от PrimaNota.Ru, забирай!