PrimaNota.ru - самый крупный в мире бесплатный архив песенных текстов, аккордов, табулатур и нот


Jesu - The Stars That Hang Above You - текст песни, таба, видео

Регистрация Запомнить меня
Войти через:  Facebook Google Twitter Vk Yandex Mail.ru

Jesu - The Stars That Hang Above You - текст песни, таба, видео

Печатать
Просмотров: 137
Уроки эстрадного вокала в Санкт-Петербурге
The stars that hang above you
by Jesu. From the split album with Envy:
C# tuning: C#F#BEG#C#

This is not meant to be 100% accurate but it works.
I let you figure out the little subtleties.

intro: brief fade in, reverse delay (...)

-(10)---10---10---10---8---8---8---8---8---8---8---8---8---8---8---8---10---10---8---------------|
----11----11---11---11--11--11--11--11--11--11--11--11--11--11--11--11---11---11--11-----...etc--|
-------------------------------------------------------------------------------------------------|
-------------------------------------------------------------------------------------------------|
-------------------------------------------------------------------------------------------------|
-------------------------------------------------------------------------------------------------|

0:23
------------------------------------------------------------------------|
-------6---9---8----8---------------------------------------------------|
---8--------------8-----5-----8-----------------------------------------|
------------------------------------------------------------------------|
------------------------------------------------------------------------|
------------------------------------------------------------------------|

0:46
Let every note ring as long as possible
--------------------------------------------------------------------------|
--------------------------------------------------------------------------|
----------------0------0--------------------------------------------------|
-------3---6--------------------------------------------------------------|
---6---------------6------3-----6---------repeat--------------------------|
--------------------------------------------------------------------------|

2:22
----8---8---8---8---8---8---8---8---8---8---8---8---8---8---10---10---8-------------|
--11--11--11--11--11--11--11--11--11--11--11--11--11--11--11---11---11---etc....----|
------------------------------------------------------------------------------------|
------------------------------------------------------------------------------------|
------------------------------------------------------------------------------------|
------------------------------------------------------------------------------------|

3:34
--------------------------------------------------------------|
--------------------------------------------------------------|
-3-------------------------------------------------7----------|
-3--16-times--3-----------5-----------6------------8----------|
-1------------3--8-times--5--8-times--6--16-times--8--16------|times
--------------1-----------3-----------4------------6----------|

First chord variations:
---------------------------------------------------|
---------------------------------------------------|
-----------------------------------------------5---|
---------------------8-------------------------3---|
---------------------8-------------------------3---|
-first chord can be--6---this sounds good also-----|

6:42
end on.......let ring
----------------|
----------------|
----------------|
------8---------|
------8---------|
------6---------|

6:42 clean chords
----------------------------------------------------------------------------------|
--6--6--6--6----6--6----6----6----6----6----6----6-------6------6------6-----6----|
--8--8--8--8----8--8----8----8----8----8----8----8-------7------7------7-----7----|
--8--8--8--8----6--6----6----6----6----6----6----6-------8------8------8-----8----|
--6--6--6--6----8--8----6----6----6----6----6----6-------5------5------5-----5----|
----------------------------------------------------------------------------------|

Enjoy. Comments welcome.
Добавлено: 05.03.2012
Другие материалы по этой песне:
  • Аккорды и текст

Страница создана 05.03.2012
http://primanota.ru/jesu/the-stars-that-hang-above-you-chords.htm
Привет, Гость.
Предлагаем пройти революционный курс по гитаре.
Подарок от PrimaNota.Ru, забирай!