PrimaNota.ru - самый крупный в мире бесплатный архив песенных текстов, аккордов, табулатур и нот


Jesu - Stanlow - таба, видео

Регистрация Запомнить меня
Войти через:  Facebook Google Twitter Vk Yandex Mail.ru

Jesu - Stanlow - таба, видео

Печатать
Просмотров: 161
Авторы музыки: Justin Broadrick
Авторы текста: Justin Broadrick
Artist: Jesu
Song: Stanlow
Album: Conqueror

Tuning: AEADGBe (dropped A)

Justin Broadrick uses a 7 string but the same sound can be achieved by
restringing a 6 string with the lower 6 strings of a 7 string set.

He also layers several guitar parts on the recordings. I've only tabbed the
most obvious parts. Further embelishments can be worked out by the player.

Verse
  C                  F                  C       B          F         E
  1 + 2 + 3 + 4 +    1 + 2 + 3 + 4 +    1 + 2 + 3 + 4 +    1 + 2 + 3 + 4 +
e------------------|------------------|------------------|------------------|
B------------------|------------------|------------------|------------------|
G------------------|------------------|------------------|------------------|
D------------------|------------------|------------------|------------------|
A-3-3-3-3-3-3-3-3--|-8-8-8-8-8-8-8-8--|-3-3-3-3-2-2-2-2--|-8-8-8-8-8-7-7-7--|
E-3-3-3-3-3-3-3-3--|-8-8-8-8-8-8-8-8--|-3-3-3-3-2-2-2-2--|-8-8-8-8-8-7-7-7--|
A-3-3-3-3-3-3-3-3--|-8-8-8-8-8-8-8-8--|-3-3-3-3-2-2-2-2--|-8-8-8-8-8-7-7-7--|

Chorus Chords
  G                  D       E          F                  C
  1 + 2 + 3 + 4 +    1 + 2 + 3 + 4 +    1 + 2 + 3 + 4 +    1 + 2 + 3 + 4 +
e------------------|------------------|------------------|------------------|
B------------------|------------------|------------------|------------------|
G------------------|------------------|------------------|------------------|
D------------------|------------------|------------------|------------------|
A-10---------------|-5-------7--------|-8----------------|-3-3-3-3-3-3-3-3--|
E-10---------------|-5-------7--------|-8----------------|-3-3-3-3-3-3-3-3--|
A-10---------------|-5-------7--------|-8----------------|-3-3-3-3-3-3-3-3--|

Chorus Riff
  G                  D       E          F                  C
  1 + 2 + 3 + 4 +    1 + 2 + 3 + 4 +    1 + 2 + 3 + 4 +    1 + 2 + 3 + 4 +
e------------------|------------------|------------------|------------------|
B------------------|------------------|------------------|------------------|
G------------------|------------------|------------------|------------------|
D------------------|------------------|------------------|------------------|
A------------------|------------------|------------------|------------------|
E---12--10----1210-|----5-------7-----|----8-------------|---10----10--12---|
A-10--------10-----|-3/5-----5/7------|-7/8--------------|-10----10---------|

Tabbed by Aleks
www.facebook.com/hesychasmsa
www.youtube.com/crystalred333
Добавлено: 29.06.2012
Другие материалы по этой песне:
  • Аккорды и текст

Страница создана 29.06.2012
http://primanota.ru/jesu/stanlow-chords.htm
Привет, Гость.
Предлагаем пройти революционный курс по гитаре.
Подарок от PrimaNota.Ru, забирай!