PrimaNota.ru - самый крупный в мире бесплатный архив песенных текстов, аккордов, табулатур и нот


Jesu - Silver - таба, видео

Регистрация Запомнить меня
Войти через:  Facebook Google Twitter Vk Yandex Mail.ru

Jesu - Silver - таба, видео

Печатать
Просмотров: 36
-------------------------------------------------------------------------------
                             Jesu - Silver
-------------------------------------------------------------------------------
Tabbed by: Poshkrueger

Tuning: Drop A

Intro/Verse. Guitar 1 Repeats This During The Solo
|---------------------------------------------------------------------------|
|---------------------------------------0-----------------------------------|
|---------------------------------------0--0--------------------------------|
|-0-------------------------------0--2--5--7--0-----------------------------|
|-0-------------------------------0--2--5--5--0-----------------------------|
|-0-(drone it out for 16 seconds--0--2--5--5--0-----------------------------| x2


Bridge Parts

Guitar 1
|---------------------------------------------------------------------------|
|-------0-------------------------------------------------------------------|
|-------0-0-----------------------------------------------------------------|
|-0--2--5--7--0-------------------------------------------------------------|
|-0--2--5--5--0-------------------------------------------------------------|
|-0--2--5--5--0-------------------------------------------------------------|

Guitar 2 (Overdubbed)
|---------------------------------------------------------------------------|
|---------------------------------------------------------------------------|
|-------7-7-----------------------------------------------------------------|
|-----7-----7---------------------------------------------------------------|
|---5-----------------------------------------------------------------------|
|-0-------------------------------------------------------------------------|

Solo Part Guitar 2
First Part
|-10--------------7-------7-------7-7---------------------------------------|
|----7-7-7--10-10---10-10---10-10-----5^-2^-3^------------------------------|
|---------------------------------------------------------------------------|
|---------------------------------------------------------------------------|
|---------------------------------------------------------------------------|
|---------------------------------------------------------------------------| x4

Second Part
|-10----------------------------7^------------------------------------------|
|----7-7-7-10-10-10-10-10-10--5^--2^----------------------------------------|
|---------------------------------------------------------------------------|
|---------------------------------------------------------------------------|
|---------------------------------------------------------------------------|
|---------------------------------------------------------------------------| x2

Third Part
|---------10^----9^---------------------------------------------------------|
|-10^-----------------12----------------------------------------------------|
|-------------------9-------------------------------------------------------|
|---------------------------------------------------------------------------|
|---------------------------------------------------------------------------|
|---------------------------------------------------------------------------| x2

Fourth Part
|-22^--21^------------------------------------------------------------------|
|------------24--22^--------------------------------------------------------|
|---------21----------------------------------------------------------------|
|---------------------------------------------------------------------------|
|---------------------------------------------------------------------------|
|---------------------------------------------------------------------------| x3

Play the third part of the solo again

And finish on this^.^
|---------------------------------------------------------------------------|
|---------------------------------------------------------------------------|
|-9^------------------------------------------------------------------------|
|---------------------------------------------------------------------------|
|---------------------------------------------------------------------------|
|---------------------------------------------------------------------------|


************************************

| /   slide up
| \   slide down
| h   hammer-on
| p   pull-off
| ~   vibrato
| +   harmonic
| x   Mute note
| b   Bend
| pb  Pre-bend
| br  Bend release
| pbr Pre-bend release
| brb Bend release bend

************************************
Добавлено: 29.04.2016
Другие материалы по этой песне:

Страница создана 03.06.2012
http://primanota.ru/jesu/silver-chords.htm
Привет, Гость.
Предлагаем пройти революционный курс по гитаре.
Подарок от PrimaNota.Ru, забирай!