PrimaNota.ru - самый крупный в мире бесплатный архив песенных текстов, аккордов, табулатур и нот


Jesu - Losing Streak - таба, видео

Регистрация Запомнить меня
Войти через:  Facebook Google Twitter Vk Yandex Mail.ru

Jesu - Losing Streak - таба, видео

Печатать
Просмотров: 136
Artist: Jesu
Song: Losing Streak
Album: Opiate Sun EP

Tuning: AEADGBe (dropped A)

Justin Broadrick uses a 7 string but the same sound can be achieved by
restringing a 6 string with the lower 6 strings of a 7 string set.

He also layers several guitar parts on the recordings. I've only tabbed the
most obvious parts. Further embelishments can be worked out by the player.

Verse
  D                  B                  A                  G
  1 + 2 + 3 + 4 +    1 + 2 + 3 + 4 +    1 + 2 + 3 + 4 +    1 + 2 + 3 + 4 +
e------------------|------------------|------------------|------------------|
B------------------|------------------|------------------|------------------|
G-------7----------|-------4-4---4----|------------------|------------------|
D-----7------------|-----4---5---4----|------------------|-5-5-5-5-5-5-5----|
A-5-5-5------------|-2-2-2------------|-0-0-0------------|-5-5-5-5-5-5-5----|
E-5-5-5------------|-2-2-2------------|-0-0-0------------|-3-3-3-3-3-3-3----|
A-5-5-5------------|-2-2-2------------|-0-0-0------------|------------------|

Bridge
  D                  B                  A                  G
  1 + 2 + 3 + 4 +    1 + 2 + 3 + 4 +    1 + 2 + 3 + 4 +    1 + 2 + 3 + 4 +
e------------------|------------------|------------------|------------------|
B------------------|------------------|-5-------5*--5*---|------------------|
G/7---7---7/9-9--9\|-4---4---4/6-6-6h7|-----------7---7--|------------------|
D------------------|------------------|------------------|-5-------5---4----|
A------------------|------------------|------------------|------------------|
E------------------|------------------|------------------|------------------|
A------------------|------------------|------------------|------------------|

*= h7p5

Outro Chords
  D                  B                  A                  G
  1 + 2 + 3 + 4 +    1 + 2 + 3 + 4 +    1 + 2 + 3 + 4 +    1 + 2 + 3 + 4 +
e------------------|------------------|------------------|------------------|
B------------------|------------------|------------------|------------------|
G------------------|---------4---4----|------------------|------------------|
D-7---7---7---7----|-4---4---5---4----|------------------|-5-5-5-5-5-5-4-4--|
A-5-5-5-5-5-5-5----|-2-2-2-2-2-2-2----|-0-0-0-0-0-0-0----|-5-5-5-5-5-5-5-5--|
E-5-5-5-5-5-5-5----|-2-2-2-2-2-2-2----|-0-0-0-0-0-0-0----|-3-3-3-3-3-3-3-3--|
A-5-5-5-5-5-5-5----|-2-2-2-2-2-2-2----|-0-0-0-0-0-0-0----|------------------|

Outro lead part
  D                                    B
  1   +   2   +   3   +   4   +        1   +   2   +   3   +   4   +
e------------------------------------|------------------------------------|
B-------------------------19--17-----|---------19--17----------19--17-----|
G-19------------------19-------------|-----19--------------19-------------|
D------------------------------------|------------------------------------|
A------------------------------------|------------------------------------|
E------------------------------------|------------------------------------|
A------------------------------------|------------------------------------|

  A                                    G
  1   +   2   +   3   +   4   +        1   +   2   +   3   +   4   +
e------------------------------------|------------------------------------|
B------------------------------------|------------------------------------|
G-----***-19--------------16--18-----|-19--19--19--19--19--18--18--19-----|
D------------------------------------|------------------------------------|
A------------------------------------|------------------------------------|
E------------------------------------|------------------------------------|
A------------------------------------|------------------------------------|

***=18p16

Tabbed by Aleks
www.facebook.com/hesychasmsa
www.youtube.com/crystalred333
Добавлено: 23.07.2012
Другие материалы по этой песне:
  • Аккорды и текст

Страница создана 23.07.2012
http://primanota.ru/jesu/losing-streak-chords.htm
Привет, Гость.
Предлагаем пройти революционный курс по гитаре.
Подарок от PrimaNota.Ru, забирай!