PrimaNota.ru - самый крупный в мире бесплатный архив песенных текстов, аккордов, табулатур и нот


Jessie B Pounds - The Way Of The Cross - таба, видео

Регистрация Запомнить меня
Войти через:  Facebook Google Twitter Vk Yandex Mail.ru

Jessie B Pounds - The Way Of The Cross - таба, видео

Печатать
Просмотров: 91
------------------------------------------------------------------------------
The way of the cross leads me home - Jesse B. Pounds
-------------------------------------------------------------------------------
artist:every hymn

key of G
Tuning:E-A-D-G-B-e

e|---------------------------------------------------------------------------------------------------------|
B|-------------------------------0---0--1---0----------------------1---------------------------------------|
G|----------0----0----0--2---0---------------------2-----0-----0----------------0---2---0----------2-------|
D|--0---2------------------------0---0--2---0------0-----2--4--2---2---2---0------------------4------------|
A|--2---3---2----3----2--3---2------------------------------0----------3---2----2---2---3-----0----3-------|
E|---------------------------------------------------------------------------------------------------------|
    I must needs go home by the way of the cross,there's no other way but this; I shall ne'er get sight
e|---------------------------------------------------------------------------------------------------------|
B|-----0-------------0-----0---0------3---3----------------------------------------------------------------|
G|--2-------2----0-----------------2-----------------------------------------------------------------------|
D|-----0-------------0-----0---0---0----------4----2---0---------------------------------------------------|
A|--3-------3----2--------------------0---0---5----4-------------------------------------------------------|
E|---------------------------------------------------------------------------------------------------------|
    Of the gates of light, if the way of the cross I miss.
e|--------------------------------------------------------------0------------|
B|-----------0--0---0---0-----1-----0-------0-3--3--3----3-----------3-------|
G|----------------------------------------0---------------------0------------|
D|-------0---0--0---0---0-----2-----0-0-0---0-0--0--0----0-----------0-0--0--|
A|----------------------------------------2----------------------------------|
E|---------------------------------------------------------------------------|
chorus: The way of the cross leads home, the way of the cross leads home;
e|-------------------------------------0-------------------------------------|
B|0--0--1-----1---1--------0---1--3--------3--3---1----0---------------------|
G|--------------------2--2--------0----0---0-----------------2-----0---------|
D|0--0--3-----2---0---0--0-0---0--------------2---2----0-----0-----0---------|
A|---------------------------------------------------------------------------|
E|---------------------------------------------------------------------------|
  It is sweet to know as I onward go, the way of the cross leads home.


************************************

| /   slide up
| \   slide down
| h   hammer-on
| p   pull-off
| ~   vibrato
| +   harmonic
| x   Mute note
| b   Bend
| pb  Pre-bend
| br  Bend release
| pbr Pre-bend release
| brb Bend release bend

************************************
Добавлено: 04.12.2015
Другие материалы по этой песне:
  • Аккорды и текст

Страница создана 04.12.2015
http://primanota.ru/jessie-b-pounds/way-of-cross-chords.htm
Привет, Гость.
Предлагаем пройти революционный курс по гитаре.
Подарок от PrimaNota.Ru, забирай!