PrimaNota.ru - самый крупный в мире бесплатный архив песенных текстов, аккордов, табулатур и нот


Jessica Pratt - Wrong Hand - таба, видео

Регистрация Запомнить меня
Войти через:  Facebook Google Twitter Vk Yandex Mail.ru

Jessica Pratt - Wrong Hand - таба, видео

Печатать
Просмотров: 54
-------------------------------------------------------------------------------
                             WRONG HAND - Jessica Pratt
-------------------------------------------------------------------------------
Tabbed by: markiiitu
E-mail: marcolucio27@gmail.com

Tuning: Standard (capo 2)

e|-------------------|-------------------|
B|--3-----------3----|--0-----------0----|
G|----3-------3---3--|----0-------0---0--|
D|------3---3--------|------2---2--------| x2
A|--------1-----1----|--------3-----3----|
E|--1----------------|--3----------------|


************************************

| /   slide up
| \   slide down
| h   hammer-on
| p   pull-off
| ~   vibrato
| +   harmonic
| x   Mute note
| b   Bend
| pb  Pre-bend
| br  Bend release
| pbr Pre-bend release
| brb Bend release bend

************************************
Добавлено: 09.12.2015
Другие материалы по этой песне:
  • Аккорды и текст

Страница создана 09.12.2015
http://primanota.ru/jessica-pratt/wrong-hand-chords.htm
Привет, Гость.
Предлагаем пройти революционный курс по гитаре.
Подарок от PrimaNota.Ru, забирай!