PrimaNota.ru - самый крупный в мире бесплатный архив песенных текстов, аккордов, табулатур и нот


Jessica Pratt - Strange Melody - таба, видео

Регистрация Запомнить меня
Войти через:  Facebook Google Twitter Vk Yandex Mail.ru

Jessica Pratt - Strange Melody - таба, видео

Печатать
Просмотров: 67
-------------------------------------------------------------------------------
                             STRANGE MELODY - Jessica Pratt
-------------------------------------------------------------------------------
Tabbed by: markiiitu
E-mail: marcolucio27@gmail.com

Tuning: Standard

e|-----|
B|-----|
G|-----|
D|-----|
A|--4--|
E|-----|

e|-----------------------------------|-----------------------------------|
B|-----------------------------------|-----------------------------------|
G|------2-------2-------2-------2----|------0-------0-------0-------0----| x2
D|----4-------4-------4-------4------|----2-------2-------2-------2------|
A|--------4-------4-------4-------4--|--------2-------2-------2-------2--|
E|--2-------2-------2-------2--------|--0-------0-------0-------0--------|


************************************

| /   slide up
| \   slide down
| h   hammer-on
| p   pull-off
| ~   vibrato
| +   harmonic
| x   Mute note
| b   Bend
| pb  Pre-bend
| br  Bend release
| pbr Pre-bend release
| brb Bend release bend

************************************
Добавлено: 09.12.2015
Другие материалы по этой песне:
  • Аккорды и текст

Страница создана 09.12.2015
http://primanota.ru/jessica-pratt/strange-melody-chords.htm
Привет, Гость.
Предлагаем пройти революционный курс по гитаре.
Подарок от PrimaNota.Ru, забирай!