PrimaNota.ru - самый крупный в мире бесплатный архив песенных текстов, аккордов, табулатур и нот


Jessica Pratt - Ive Got A Feeling - таба, видео

Регистрация Запомнить меня
Войти через:  Facebook Google Twitter Vk Yandex Mail.ru

Jessica Pratt - Ive Got A Feeling - таба, видео

Печатать
Просмотров: 156
-------------------------------------------------------------------------------
                             I'VE GOT A FEELING - Jessica Pratt
-------------------------------------------------------------------------------
Tabbed by: markiiitu
E-mail: marcolucio27@gmail.com

Tuning: Standard (capo 4)

e|-----------------------------------|
B|------0-----0-------0---0-----0----|
G|----3-----3-----3-2---2-----2------|
D|--2-----2-----2-----------2-----2--|
A|--0-----0-----0---0-----0-----0----|
E|-----------------------------------|


************************************

| /   slide up
| \   slide down
| h   hammer-on
| p   pull-off
| ~   vibrato
| +   harmonic
| x   Mute note
| b   Bend
| pb  Pre-bend
| br  Bend release
| pbr Pre-bend release
| brb Bend release bend

************************************
Добавлено: 03.05.2015
Другие материалы по этой песне:
  • Аккорды и текст

Страница создана 03.05.2015
http://primanota.ru/jessica-pratt/ive-got-a-feeling-chords.htm
Привет, Гость.
Предлагаем пройти революционный курс по гитаре.
Подарок от PrimaNota.Ru, забирай!