PrimaNota.ru - самый крупный в мире бесплатный архив песенных текстов, аккордов, табулатур и нот


Jesse Y Joy - Veneno - таба, видео

Регистрация Запомнить меня
Войти через:  Facebook Google Twitter Vk Yandex Mail.ru

Jesse Y Joy - Veneno - таба, видео

Печатать
Просмотров: 120
Veneno - Jesse & Joy

Intro

E Cm G#m/A E

E              Cm
Parece extraño tener a otra persona
G#m/A                      E
Cuando yo estoy pensando en ti
E                Cm
En cada beso mi alma me traiciona
G#m/A                     E
Porque yo estoy pensando en ti
B           Cm          A            Cm/B
Como desistir si el corazón decide y yo no

Puente

B           Cm          A
Si no eres para mí que mueran las estrellas
B
Y que caigan sobre mí

Coro

E                        Cm
Beso sus labios y me saben a ti
A                               Cm/B
Estando con el quiero tu nombre decir
B           Cm        A
Como resistir si es tanto lo que duele
B                  E
El veneno de tu amor


E              Cm
Parece extraño que rodeándome en sus brazos
G#m/A                E
Yo solo siento tu calor
E                 Cm
Cierro los ojos y siento que lo engaño
G#m/A                E
Porque no es suyo mi amor

Puente

B           Cm          A
Si no eres para mí sal de mis pensamientos
B
Y ya déjame vivir

Coro

E                        Cm
Beso sus labios y me saben a ti
A                               Cm/B
Estando con el quiero tu nombre decir
B           Cm        A
Como resistir si es tanto lo que duele
B                  E
El veneno de tu amor

Solo


-|-----------------------------------------------|
-|----7----7------7----7------7----7----7-97-----|
-|--99---99-----99---99-----99---99---99-9--9----|
-|-----------------------------------------------|
-|-----------------------------------------------|
-|-----------------------------------------------|


-|--------------------------------------------------|
-|----7----7------7----7-------7-----7--------------|
-|--99---99-----99---99---88889----88-8-------------|
-|--------------------------------------------------|
-|--------------------------------------------------|
-|--------------------------------------------------|


-|-----------------------------------------------|
-|----7----7------7----7-----97------------------|
-|--99---99-----99---99--------98----------------|
-|-----------------------------------------------|
-|-----------------------------------------------|
-|-----------------------------------------------|

B           Cm
Como resistir…

Coro

E                        Cm
Beso sus labios y me saben a ti
A                               Cm/B
Estando con el quiero tu nombre decir
B           Cm        A
Como resistir si es tanto lo que duele
B                  E
El veneno de tu amor


Por su atención gracias.
Valen mil nunca cambien!
Добавлено: 27.06.2012
Другие материалы по этой песне:
  • Аккорды и текст

Страница создана 27.06.2012
http://primanota.ru/jesse-y-joy/veneno-chords.htm
Привет, Гость.
Предлагаем пройти революционный курс по гитаре.
Подарок от PrimaNota.Ru, забирай!