PrimaNota.ru - самый крупный в мире бесплатный архив песенных текстов, аккордов, табулатур и нот


Jesse James - Dear Jesus - таба, видео

Регистрация Запомнить меня
Войти через:  Facebook Google Twitter Vk Yandex Mail.ru

Jesse James - Dear Jesus - таба, видео

Печатать
Просмотров: 104
Artist - Jesse James
Album - Mission
Song - Dear Jesus

Tuning - Standard (E A D G B E)

|PM...| - Palm Mute

After 25 seconds of random singing...

*****
Intro
*****

Guitar 1
|-----------------|-----------------|-----------------|-----------------| 
|-----------------|-----------------|-----------------|-----------------|  
|-7-7-7-7-7-7-7-7-|-7-7-7-7-7-7-7-7-|-4-4-4-4-4-4-4-4-|-4-4-4-4-4-4-4-4-|  
|-7-7-7-7-7-7-7-7-|-7-7-7-7-7-7-7-7-|-4-4-4-4-4-4-4-4-|-4-4-4-4-4-4-4-4-|  
|-5-5-5-5-5-5-5-5-|-5-5-5-5-5-5-5-5-|-2-2-2-2-2-2-2-2-|-2-2-2-2-2-2-2-2-|  
|-----------------|-----------------|-----------------|-----------------|  
|PM.....................................................................|
                                                                           
|-----------------|-----------------|-----------------|-----------------|  
|-----------------|-----------------|-----------------|-----------------|  
|-----------------|-----------------|-7-7-7-7-7-7-7-7-|-7-7-7-7-7-7-7-7-|
|-6-6-6-6-6-6-6-6-|-6-6-6-6-6-6-6-6-|-7-7-7-7-7-7-7-7-|-7-7-7-7-7-7-7-7-| 
|-6-6-6-6-6-6-6-6-|-6-6-6-6-6-6-6-6-|-5-5-5-5-5-5-5-5-|-5-5-5-5-5-5-5-5-| 
|-3-3-3-3-3-3-3-3-|-3-3-3-3-3-3-3-3-|-----------------|-----------------|  
|PM.....................................................................|



|-----------------|-----------------|-----------------|-----------------| 
|-----------------|-----------------|-----------------|-----------------|  
|-7-7-7-7-7-7-7-7-|-7-7-7-7-7-7-7-7-|-4-4-4-4-4-4-4-4-|-4-4-4-4-4-4-4-4-|  
|-7-7-7-7-7-7-7-7-|-7-7-7-7-7-7-7-7-|-4-4-4-4-4-4-4-4-|-4-4-4-4-4-4-4-4-|  
|-5-5-5-5-5-5-5-5-|-5-5-5-5-5-5-5-5-|-2-2-2-2-2-2-2-2-|-2-2-2-2-2-2-2-2-|  
|-----------------|-----------------|-----------------|-----------------|  
|PM.....................................................................|
                                                      Guitar 1 +2                     
|-----------------|-----------------|-----------------|-----------------|  
|-----------------|-----------------|-----------------|-----------------|  
|-----------------|-----------------|-7-7-7-7---------|-----------------|
|-5-5-5-5-5-5-5-5-|-5-5-5-5-5-5-5-5-|-7-7-7-7-7-7-7-7-|-7-7-7-7-7-7-7-7-|
|-5-5-5-5-5-5-5-5-|-5-5-5-5-5-5-5-5-|-5-5-5-5-7-7-7-7-|-7-7-7-7-7-7-7-7-|
|-3-3-3-3-3-3-3-3-|-3-3-3-3-3-3-3-3-|---------5-5-5-5-|-5-5-5-5-5-5-5-5-|  
|PM....................................................| |PM.| |PM.| |PM|

*****
Verse
*****

Guitar 1 + 2
|-----------------|-----------------|-----------------|-----------------| \
|-----------------|-----------------|-----------------|-----------------|  |
|-7-7-7-7-7-7-7-7-|-7-7-7-7-7-7-7-7-|-4-4-4-4-4-4-4-4-|-4-4-4-4-4-4-4-4-|  |
|-7-7-7-7-7-7-7-7-|-7-7-7-7-7-7-7-7-|-4-4-4-4-4-4-4-4-|-4-4-4-4-4-4-4-4-|  |
|-5-5-5-5-5-5-5-5-|-5-5-5-5-5-5-5-5-|-2-2-2-2-2-2-2-2-|-2-2-2-2-2-2-2-2-|  |
|-----------------|-----------------|-----------------|-----------------|  |
    |PM.................................................................|  |  x2
                                                                           |
|-----------------|-----------------|-----------------|-----------------|  |
|-----------------|-----------------|-----------------|-----------------|  |
|-----------------|-----------------|-7-7-7-7-7-7-7-7-|-7-7-7-7-7-7-7-7-|  |
|-5-5-5-5-5-5-5-5-|-5-5-5-5-5-5-5-5-|-7-7-7-7-7-7-7-7-|-7-7-7-7-7-7-7-7-|  |
|-5-5-5-5-5-5-5-5-|-5-5-5-5-5-5-5-5-|-5-5-5-5-5-5-5-5-|-5-5-5-5-5-5-5-5-|  |
|-3-3-3-3-3-3-3-3-|-3-3-3-3-3-3-3-3-|-----------------|-----------------| /
|PM....................................................| |PM.| |PM.| |PM|

******
Chorus
******
Guitar 1 + 2
|-----------------|-----------------|-----------------|-----------------| \
|-----------------|-----------------|-----------------|-----------------|  |
|-7-7-7-7-7-7-7-7-|-7-7-7-7-7-7-7-7-|-4-4-4-4-4-4-4-4-|-4-4-4-4-4-4-4-4-|  |
|-7-7-7-7-7-7-7-7-|-7-7-7-7-7-7-7-7-|-4-4-4-4-4-4-4-4-|-4-4-4-4-4-4-4-4-|  |
|-5-5-5-5-5-5-5-5-|-5-5-5-5-5-5-5-5-|-2-2-2-2-2-2-2-2-|-2-2-2-2-2-2-2-2-|  |
|-----------------|-----------------|-----------------|-----------------|  |
                                                                           | x2
|-----------------|-----------------|-----------------|-----------------|  |
|-----------------|-----------------|-----------------|-----------------|  |
|-----------------|-----------------|-7-7-7-7-7-7-7-7-|-7-7-7-7-7-7-7-7-|  |
|-5-5-5-5-5-5-5-5-|-5-5-5-5-5-5-5-5-|-7-7-7-7-7-7-7-7-|-7-7-7-7-7-7-7-7-|  |
|-5-5-5-5-5-5-5-5-|-5-5-5-5-5-5-5-5-|-5-5-5-5-5-5-5-5-|-5-5-5-5-5-5-5-5-|  |
|-3-3-3-3-3-3-3-3-|-3-3-3-3-3-3-3-3-|-----------------|-----------------| /

******
Bridge
******

Guitar 1 + 2
|-----------------|-----------------|-----------------|-----------------|
|-----------------|-----------------|-----------------|-----------------|
|-7-7-7---7-7-7-7-|-2-2-2---2-2-2-2-|-3-3-3---3-3-3-3-|-2-2-2---2-2-2-2-|
|-7-7-7---7-7-7-7-|-2-2-2---2-2-2-2-|-3-3-3---3-3-3-3-|-2-2-2---2-2-2-2-|
|-5-5-5---5-5-5-5-|-0-0-0---0-0-0-0-|-1-1-1---1-1-1-1-|-0-0-0---0-0-0-0-|
|-----------------|-----------------|-----------------|-----------------| x3

*****
Verse
*****
Guitar 1
|-----------------|-----------------|-----------------|-----------------| 
|-----------------|-----------------|-----------------|-----------------|  
|-7-7-7-7-7-7-7-7-|-7-7-7-7-7-7-7-7-|-4-4-4-4-4-4-4-4-|-4-4-4-4-4-4-4-4-|  
|-7-7-7-7-7-7-7-7-|-7-7-7-7-7-7-7-7-|-4-4-4-4-4-4-4-4-|-4-4-4-4-4-4-4-4-|  
|-5-5-5-5-5-5-5-5-|-5-5-5-5-5-5-5-5-|-2-2-2-2-2-2-2-2-|-2-2-2-2-2-2-2-2-|  
|-----------------|-----------------|-----------------|-----------------|  
|PM.....................................................................|
                                                      Guitar 1 +2                     
|-----------------|-----------------|-----------------|-----------------|  
|-----------------|-----------------|-----------------|-----------------|  
|-----------------|-----------------|-7-7-7-7-7-7-7-7-|-7-7-7-7-7-7-7-7-|
|-5-5-5-5-5-5-5-5-|-5-5-5-5-5-5-5-5-|-7-7-7-7-7-7-7-7-|-7-7-7-7-7-7-7-7-|
|-5-5-5-5-5-5-5-5-|-5-5-5-5-5-5-5-5-|-5-5-5-5-5-5-5-5-|-5-5-5-5-5-5-5-5-|
|-3-3-3-3-3-3-3-3-|-3-3-3-3-3-3-3-3-|-----------------|-----------------|  
|PM....................................................| |PM.| |PM.| |PM|

Guitar 1 + 2
|-----------------|-----------------|-----------------|-----------------| 
|-----------------|-----------------|-----------------|-----------------|  
|-7-7-7-7-7-7-7-7-|-7-7-7-7-7-7-7-7-|-4-4-4-4-4-4-4-4-|-4-4-4-4-4-4-4-4-|  
|-7-7-7-7-7-7-7-7-|-7-7-7-7-7-7-7-7-|-4-4-4-4-4-4-4-4-|-4-4-4-4-4-4-4-4-|  
|-5-5-5-5-5-5-5-5-|-5-5-5-5-5-5-5-5-|-2-2-2-2-2-2-2-2-|-2-2-2-2-2-2-2-2-|  
|-----------------|-----------------|-----------------|-----------------|  
    |PM.................................................................|  
                                                                           
|-----------------|-----------------|-----------------|-----------------|  
|-----------------|-----------------|-----------------|-----------------|  
|-----------------|-----------------|-7-7-7-7---------|-----------------|  
|-5-5-5-5-5-5-5-5-|-5-5-5-5-5-5-5-5-|-7-7-7-7-7-7-7-7-|-7-7-7-7-7-7-7-7-|  
|-5-5-5-5-5-5-5-5-|-5-5-5-5-5-5-5-5-|-5-5-5-5-7-7-7-7-|-7-7-7-7-7-7-7-7-|  
|-3-3-3-3-3-3-3-3-|-3-3-3-3-3-3-3-3-|---------5-5-5-5-|-5-5-5-5-5-5-5-5-| 
|PM....................................................| |PM.| |PM.| |PM|

**********
Pre-Chorus
**********

Guitar 1 + 2
|-----------------|-----------------|-----------------|-----------------|
|-----------------|-----------------|-----------------|-----------------|
|-----------------|-----------------|-7-7-7-7-7-7-7-7-|-7-7-7-7-7-7-7-7-|
|-5-5-5-5-5-5-5-5-|-5-5-5-5-5-5-5-5-|-7-7-7-7-7-7-7-7-|-7-7-7-7-7-7-7-7-|
|-5-5-5-5-5-5-5-5-|-5-5-5-5-5-5-5-5-|-5-5-5-5-5-5-5-5-|-5-5-5-5-5-5-5-5-|
|-3-3-3-3-3-3-3-3-|-3-3-3-3-3-3-3-3-|-----------------|-----------------|

******
Chorus
******

Guitar 1 + 2
|-----------------|-----------------|-----------------|-----------------|
|-----------------|-----------------|-----------------|-----------------| 
|-7-7-7-7-7-7-7-7-|-7-7-7-7-7-7-7-7-|-4-4-4-4-4-4-4-4-|-4-4-4-4-4-4-4-4-|  
|-7-7-7-7-7-7-7-7-|-7-7-7-7-7-7-7-7-|-4-4-4-4-4-4-4-4-|-4-4-4-4-4-4-4-4-|  
|-5-5-5-5-5-5-5-5-|-5-5-5-5-5-5-5-5-|-2-2-2-2-2-2-2-2-|-2-2-2-2-2-2-2-2-|  
|-----------------|-----------------|-----------------|-----------------| 
                                                                          
|-----------------|-----------------|-----------------|-----------------|  
|-----------------|-----------------|-----------------|-----------------|  
|-----------------|-----------------|-7-7-7-7-7-7-7-7-|-7-7-7-7-7-7-7-7-|  
|-5-5-5-5-5-5-5-5-|-5-5-5-5-5-5-5-5-|-7-7-7-7-7-7-7-7-|-7-7-7-7-7-7-7-7-|  
|-5-5-5-5-5-5-5-5-|-5-5-5-5-5-5-5-5-|-5-5-5-5-5-5-5-5-|-5-5-5-5-5-5-5-5-|  
|-3-3-3-3-3-3-3-3-|-3-3-3-3-3-3-3-3-|-----------------|-----------------| 

*****
Outro
*****

|-----------------|-----------------|-----------------|-----------------|
|-----------------|-----------------|-----------------|-----------------| 
|-7-7-7-7-7-7-7-7-|-7-7-7-7-7-7-7-7-|-4-4-4-4-4-4-4-4-|-4-4-4-4-4-4-4-4-|  
|-7-7-7-7-7-7-7-7-|-7-7-7-7-7-7-7-7-|-4-4-4-4-4-4-4-4-|-4-4-4-4-4-4-4-4-|  
|-5-5-5-5-5-5-5-5-|-5-5-5-5-5-5-5-5-|-2-2-2-2-2-2-2-2-|-2-2-2-2-2-2-2-2-|  
|-----------------|-----------------|-----------------|-----------------| 
                                                                          
|-----------------|-----------------|-----------------|-----------------|
|-----------------|-----------------|-----------------|-----------------|
|-----------------|-----------------|-----------------|-7---------------|
|-5-5-5-5-5-5-5-5-|-5---------------|-4-------2-------|-7---------------|
|-5-5-5-5-5-5-5-5-|-5---------------|-4-------2-------|-5---------------|
|-3-3-3-3-3-3-3-3-|-3---------------|-2-------0-------|-----------------|
Добавлено: 10.10.2013
Вам также может быть интересно:
Другие материалы по этой песне:
  • Аккорды и текст

Страница создана 10.10.2013
http://primanota.ru/jesse-james/dear-jesus-chords.htm
Привет, Гость.
Предлагаем пройти революционный курс по гитаре.
Подарок от PrimaNota.Ru, забирай!