PrimaNota.ru - самый крупный в мире бесплатный архив песенных текстов, аккордов, табулатур и нот


Jesse James Dupree - Bite - таба, бас-таба, видео

Регистрация Запомнить меня
Войти через:  Facebook Google Twitter Vk Yandex Mail.ru

Jesse James Dupree - Bite - таба, бас-таба, видео

Печатать
Просмотров: 142
-------------------------------------------------------------------------------
                             BITE - Jesse James Dupree & Dixie Inc.
-------------------------------------------------------------------------------

Tabbed by: Isaias Garcia (TexasFury)

URL: http://www.jessejamesdupree.com/

Tuning: Standard


Rhythm Guitar (left and right)

Verse Riff #1
     Q    E  E  E  E  E  E     E  E  E  E  E  E  E  E
E||-------------------------|--------------------------|
B||-------------------------|--------------------------|
G||-------------------------|--------------------------|
D||-------------------------|--------------------------|
A||--4-------4--4--x--x--4--|--L--4-----4--4--4-----4--|
E||--2----0--2--2--x--x--2--|--L--2--0--2--2--2--0--2--|


     Verse Riff #2
     Q    Q     E  E  E  E     Q    E  E  E  E  E  E
E||-------------------------|-------------------------|
B||-------------------------|-------------------------|
G||-------------------------|-------------------------|
D||--4----4s----9--9--9--2--|--L----2-----------------|
A||--2----2s----7--7--7--0--|--L----0-----5--5--5-----|
E||-------------------------|----------0--3--3--3--0--|


     Verse Riff #3 (before chorus)
     Q    E  E  E  E  E  E     H.           E  E
E||----------------------0--|--L------------L-----|
B||----------------------0--|--L------------L-----|
G||-------------------------|---------------------|
D||-------------------------|------------------0--|
A||--4----4--4--4--4-----2--|--L------------L--0--|
E||--2----2--2--2--2--0--0--|--L------------L-----|


     Chorus Riff #1
                                  PM PM
     Q    Q    Q    E  E     Q    E  E  E  E  E  E
E||-----------------------|-------------------------|
B||--4---------3-------5--|--L----------8--8--8-----|
G||--4---------2-------4--|--L----------7--7--7-----|
D||--4---------0----0--2--|--L----0--0--5--5--5--7--|
A||--2---------0----0-----|----------------------5--|
E||--2--------------------|-------------------------|


     Chorus Riff #2 (end of chorus)
     Q    Q    Q    E  E     H.           E  E
E||-----------------------|---------------------|
B||--4---------3----3-----|---------------------|
G||--4---------2----2--2--|--L------------L-----|
D||--4---------0----0--2--|--L------------L-----|
A||--2---------0----0--0--|--L------------L--2--|
E||-----------------------|------------------0--|


     Bridge (left rhythm)                              Feedback
                                                       <
     W                   W                   H         H            W
E||-------------------|-------------------|---------------------|---------------------|
B||-------------------|-------------------|-----------19--------|---L~----------------|
G||-------------------|-------------------|---------------------|---------------------|
D||--4----------------|--L----------------|--L------------------|---------------------|
A||--2----------------|--L----------------|--L------------------|---------------------|
E||-------------------|-------------------|---------------------|---------------------|


                                                                <
   W                     W                     H          Q     Q       W
---------------------|---------------------|-------------------------|--------------------|
---L~----------------|---L~----------------|---L~---------L~---------|--------------------|
---------------------|---------------------|-------------------------|--------------------|
---------------------|---------------------|-------------------------|--------------------|
---------------------|---------------------|--------------------2----|--L~----------------|
---------------------|---------------------|-------------------------|--------------------|

     Bridge (right rhythm)
     W                   W                   W                   W
E||-------------------|-------------------|-------------------|-------------------|
B||-------------------|-------------------|-------------------|-------------------|
G||-------------------|-------------------|-------------------|-------------------|
D||--4----------------|--L----------------|--L----------------|--L----------------|
A||--2----------------|--L----------------|--L----------------|--L----------------|
E||-------------------|-------------------|-------------------|-------------------|


  W                   W                   Q       Q
-------------------|-------------------|-------|-------|
-------------------|-------------------|-------|-------|
-------------------|-------------------|-------|-------|
--4----------------|--L----------------|--4----|--L----|
--2----------------|--L----------------|--2----|--L----|
-------------------|-------------------|-------|-------|


     Guitar Solo (Riff #1)
     E  E  E  E  E  E  E  E     Q    E  E  E  E  E   E
E||--------------------------|--------------------------|
B||--------------------------|--------------------------|
G||--------------------------|----------------9---------|
D||--4--4--2--4--4--x--x--7--|--L----7--9--L--9--7s--6--|
A||--2--2--0--2--2--x--x--5--|--L----5--7--L--7--5s--4--|
E||--------------------------|--------------------------|


     Guitar Solo Riff #1 (end of section)
     E  E  E  E  E  E  E  E     E  E  E  E     E  E  E  E  E  E  E   E
E||--------------------------|--------------|---------------------------|
B||--------------------------|--------------|-----------------------10--|
G||--------------------------|-----------9--|-----------9--9---------9--|
D||--4--4--2--4--4--x--x--7--|--L--7--7--9--|--9--------9--9---------9--|
A||--2--2--0--2--2--x--x--5--|--L--5--5--7--|--7--------7--7---------7--|
E||--------------------------|--------------|-----0--0--------0--0------|


     PM
  E  E  E  E  E  E  E  E
--------------------------|
--9-----------------------|
--9-----9--9--9-----9-----|
--9-----9--9--9-----9-----|
--7-----7--7--7-----7-----|
-----0-----------0-----0--|


     Outro (repeat till end)
             PM PM PM PM        PM PM PM      PM PM
     S     S S  S  S  S  S  S S S  S  S  S  S S  S
E||-------------------------------------------------|
B||-------------------------------------------------|
G||-------------------------------------------------|
D||-------------------------------------------------|
A||-------------------------------------------------|
E||--0h----2-2--2--2--2--0h-2-L-2--2--2--0h-2-2--2--|


     Outro Rhythm #3 Chords
     W                   W                   W
E||-------------------|-------------------|-------------------|
B||-------------------|-------------------|-------------------|
G||--6----------------|--5----------------|--4----------------|
D||--4----------------|--4----------------|--4----------------|
A||-------------------|-------------------|-------------------|
E||-------------------|-------------------|-------------------|


     Bridge (clean guitar)
     E  E  Q    E  E  E  E     E  E  E  E  E  E  E  E
E||-------------------------|--------------------------|
B||-------------------------|--------------------------|
G||-----4----------4--------|-----4-----------4--------|
D||--------4----------4-----|--------4-----------4-----|
A||--2----------------------|--------------0-----------|
E||-------------3--------4--|--L--------4-----------0--|


     Guitar Solo (lead)
                                                                   PM
                                                     |--3-|
     E   E  E  E   E  E  E   E     E   E  E  E   E   S  S S S  S S S
E||------7--7------7--7---------|------7--7---------------------------|
B||------7--7------7--7------7--|------7--7---------------------------|
G||--9b--------9b--------9b--7--|--9b--------9b--9b--9p-7---9p-7------|
D||-----------------------------|-------------------------9------9----|
A||-----------------------------|----------------------------------9--|
E||-----------------------------|-------------------------------------|


  E  E  Q     S  S E   S  S E     S  S S S S  S E  S S  S  S E  E
-------------------------------|-----------------------------------|
-------------------------------|-----------------------------7--9--|
--7----------------7b--9p-7----|-------7---9p-7----7---------7--9--|
-----9--L~----7h-9----------9--|--7h-9---9------9----9p-7h-9-------|
-------------------------------|-----------------------------------|
-------------------------------|-----------------------------------|


                                                                       |--3--|
  S  E.  Q     S   S S  S  S  S S S    S   S S S   S S  S  S S  S S  S S  S  S  S S
------------------------------------|----------------7------------------------------|
---------------------7--------------|--------7-9h-10---10p-9-7----9----7h-9p-7----7-|
--7b-----------9h-10---10p-9p-7---7-|--9h-10-------------------10---10---------10---|
-----9---L~---------------------9---|-----------------------------------------------|
------------------------------------|-----------------------------------------------|
------------------------------------|-----------------------------------------------|


                                                         W
  S  S  S S S  S E  E   E   S  S E      E  S  S E  E     E  E  E    E   Q      E  S   S
-------------------------------------|----------------|------------10-------------------|
-------------------------------------|----------------|----------------12b----10--7h-10-|
--9b-9p-7---9p-7----7b--9b--9p-7-9~--|--L-------7--9--|--9--7--9b-----------------------|
----------9------9-------------------|-----7h-9-------|---------------------------------|
-------------------------------------|----------------|---------------------------------|
-------------------------------------|----------------|---------------------------------|


                                              Chorus #3
   |--3-|      |--3-|
   S S  S  E   S S  S S  S S S E  S  S E      E    E    H.
-----7------------------------------------|---------------------------|
--10---10p-7-----7------------------------|--10b--10b---L~------------|
--------------10---10-9p-7-9-7----7h-8----|---------------------------|
-------------------------------9-------9--|---------------------------|
------------------------------------------|---------------------------|
------------------------------------------|---------------------------|


   H        S   S  S  S S  S S  S    S  S E  H.               Q.        E   S  S  E     
  S  S
----------------------------------|------------------------|-------------------------------------|
---L--------7h-10p-7--------------|------------------------|---------------10----10--------10----|
---------------------10-9p-7-9p-7-|--9p-7------------------|---------9g11-----11-----9g11-----11-|
----------------------------------|-------9--L~------------|--L----------------------------------|
----------------------------------|------------------------|-------------------------------------|
----------------------------------|------------------------|-------------------------------------|


   E     E   S  S  E     E   S  S  E      E      S  S  E   S  S E  S  S S S S  S E
---------------------------------------------|--------------------------------------|
--10--------10----10--------10----10---------|--10----10----------------------------|
------9g11-----11-----9g11-----11-----11g11--|-----11-----11s-9-7--9p-7---7-9p-7----|
---------------------------------------------|--------------------------9--------9--|
---------------------------------------------|--------------------------------------|
---------------------------------------------|--------------------------------------|


   E    E    E  S  S S  S E  S  S E      E  E  E  E  S  S E  S  S E       E    E  H.
----------------7---------------------|------------------------------|--------------------------|
--10b--10b---L----10------------------|------------------------------|--------------------------|
---------------------9p-7-9--9p-7-9~--|--L--7--6--7--9p-7----7p-6----|--------------------------|
--------------------------------------|-------------------7-------7--|--7g9--7g9--L~------------|
--------------------------------------|------------------------------|--------------------------|
--------------------------------------|------------------------------|--------------------------|


  Q    Q     Q      Q         E    Q.      S  S  E  E   E     Q     S  S E  S  S E  S  S 
S S
------------10-----10-----|----------------7---------------|----------------------------------|
-------0-----9b-----9b----|--10b--10b--------10p-7---------|----------------------------------|
--------------------------|-------------------------9b--9--|--9~---------7--9p-7----6h-7p-6---|
--L-----------------------|--------------------------------|--------7h-9---------9----------9-|
--------------------------|--------------------------------|----------------------------------|
--------------------------|--------------------------------|----------------------------------|


           |--3--|
  S S  S S S  S  S E  S  S  S S S S  S S    E  S S E    E  E  E  S S E
-----------------------------------------|-------------------------------|
-----------------------------------------|-------------------------------|
--6------7-7h-9p-7-----------------------|-------------------------------|
----7s-9-----------9--7h-9p-7---9------7-|-------------------------------|
------------------------------9---7h-9---|--7--5---7--5g6--L--5----5-----|
-----------------------------------------|-------7---------------7---7~--|


                                                                  Outro
  E  E  S  S E  S  S E  S  S S  S    E  E  Q       E  E  Q        S  E.  H.
----------------------------------|----------------------------|-----------------------|
----------------------------------|----------------------------|-----------------------|
----------------------------------|-------------------9--9\----|-----------------------|
---------------------7--7h-9-7h-9-|--L--7-------9g11-----------|--2h-4---L~------------|
-------------7--7h-9--------------|--------9-------------------|-----------------------|
--L--7--5h-7----------------------|----------------------------|-----------------------|


  Q    S  S S  S E   Q.         H        H            W                   E   E  Q    H
-----------------------------|---------------------|-------------------|------------------------|
-----------------------------|---------------------|-------------------|--5b--L--L----L~--------|
------------2h-4-4b--4b------|--L--------L~--------|--L----------------|------------------------|
--L----2h-4------------------|---------------------|-------------------|------------------------|
-----------------------------|---------------------|-------------------|------------------------|
-----------------------------|---------------------|-------------------|------------------------|


  H        S E  S E  E      Q    E.  S  H            H.           E  E
----------------5--------|------------------------|----------------------|
--L--------L---------5b--|--L----5---2h-5~--------|--L------------L------|
-------------x-------4b--|--L---------------------|----------------------|
-------------x-----------|------------------------|------------------5/--|
-------------------------|------------------------|----------------------|
-------------------------|------------------------|----------------------|


                 W
                                        |---3--|                              |------3-----|
   S   S  S   S  Q     E   S   S  S  S  S   S  S      S   S  S  S  H          E    E   S 
 S
-------------------------------------------------|-------------------------------------------|
-------------------------------------------------|---------------------------17b--17--14h-17-|
---------14h-16--L-----L---------14-16--Lp-14----|---16p-14-------16b------------------------|
--14h-16------------------14h-16--------------16-|--(16)----16-14----------------------------|
-------------------------------------------------|-------------------------------------------|
-------------------------------------------------|-------------------------------------------|


   Begin fade
   S          S  S  S  T   T   S  S  S  S   S  S  S   S  S  S   S
--------------------------------------------------------14--------|
--14------------14-17-14h-17p-14----14-17p-14----14h-17----17p-14-|
-------------17------------------16-----------16------------------|
------------------------------------------------------------------|
------------------------------------------------------------------|
------------------------------------------------------------------|


   |---3--|                               |---3---|
   S   S  S  S  S  S   T   T  S  S  S  S  S   S   S  S  S  E
--------------------------------------------------------------|
--16p-14----17----14h-16p-14----14----------------------------|
---------17----17------------17----17-16-17p-16p-14-16----14--|
----------------------------------------------------16-16-----|
--------------------------------------------------------------|
--------------------------------------------------------------|


          |---3---|   |---3--|     |---3---|                 |---3---|
   Q      E   E   E   Q      E     E   E   E       E   S  S  S   S   S  S  S  Q      Q
--17b-----L--17--14--17b----17pb---L--14--17b--|--17--14-17-14h-17p-14----14---------------|
-----------------------------------------------|-----------------------17----17b-----L~----|
-----------------------------------------------|-------------------------------------------|
-----------------------------------------------|-------------------------------------------|
-----------------------------------------------|-------------------------------------------|
-----------------------------------------------|-------------------------------------------|


   |---3---|   |---3---|  |--|   |---3---|
   E   E   E   S   S   S  S  E   E   E   E   S  S  S  S     Q.       E   Q      Q
--14--17--16--17p-16p-14----14--------------------------|----------------------------|
-------------------------17-14--14----------------------|-----------14---------17----|
--------------------------------14--13--14--16-13-14----|-----------14--16b----------|
-----------------------------------------------------16-|--16~-----------------------|
--------------------------------------------------------|----------------------------|
--------------------------------------------------------|----------------------------|


                                                                         |---3--|  |---3--|
   E    E    Q     H             E   S  S  E   S  T   T  S  T  T   T  S. S   S  S  S  S  
S
-----------------------------|------14--------14-----------14---------------------14--------|
-----------------------------|---------17--------17p-14-------17p-14----17p-14-------17p-14-|
--16b--16b---L----16~--------|---L--------16------------16-----------16--------16-----------|
-----------------------------|--------------------------------------------------------------|
-----------------------------|--------------------------------------------------------------|
-----------------------------|--------------------------------------------------------------|


         |---3--|
   S  S  S   S  S  T  T   S  S  S  Q      E   E
-----14-----------14-----------14--L~------------|
--------17p-14-------17p-14---------------x--17--|
--16-----------16-----------16------------x------|
-------------------------------------------------|
-------------------------------------------------|
-------------------------------------------------|


                                                      W
           |---3--|              |--3--|
   E   E   S   S  S  S  S  S  S  S  S  S  E    E      H         E   E  E   E
------14------------------------------------------|---------------------------|
---L------17p-14----14----------------------------|---------------------------|
-----------------17----17-16-14----14----16b--14--|---L---------L\-----2~-----|
--------------------------------16----16----------|-----------------4------4--|
--------------------------------------------------|---------------------------|
--------------------------------------------------|---------------------------|


  E   S S S  S E  S S  S  S S  S S  S    E   S  S S  S S  S S S  S  S S  S S  S
--------2-----------------------------|-----------------------------------------|
------2---5p-2------------------------|-----------------------------------------|
--4b-----------4--4-4b-Lp-2-4p-2------|--4b--4p-2-4p-2------4-4b-Lp-2-4p-2------|
---------------------------------4p-2-|----------------4p-2----------------4p-2-|
--------------------------------------|-----------------------------------------|
--------------------------------------|-----------------------------------------|


  Q       E   E  Q     E   E
-------------------------------||
-------------------------------||
--4S----6g7s--9--L~----L\--4b--||
-------------------------------||
-------------------------------||
-------------------------------||


Duration Legend
---------------
W - whole
H - half
Q - quarter
E - 8th
S - 16th
T - 32nd
X - 64th
. - note dotted
|-n-|  - n-tuplets


Tablature Legend
----------------
L - tied note
x - dead note
g - grace note
(n) - ghost note
> - accentuded note
NH - natural harmonic
AH - artificial harmonic
TH - tapped harmonic
SH - semi harmonic
PH - pitch harmonic
h - hammer on
p - pull off
b - bend
br - bendRelease
pb - preBend
pbr - preBendRelease
brb - bendReleaseBend
\n/ - tremolo bar dip
\n - tremolo bar dive
-/n - tremolo bar Release up
/n\ - tremolo bar inverted dip
/n - tremolo bar return
-\n - tremolo bar Release down
S - shift slide
s - legato slide
/ -  slide into from below or out of upwards
\ -  slide into from above or out of downwards
~ - vibrato
W - wide vibrato
tr - trill
TP - tremolo picking
T - tapping
S - slap
P - pop
< - fade in
^ - brush up
v - brush down

Check my other tabs at for Guitar Pro, Powertab, and guitar/bass txt at
http://profile.ultimate-guitar.com/TexasFury/contributions/
Добавлено: 30.07.2012
Другие материалы по этой песне:

Страница создана 16.03.2012
http://primanota.ru/jesse-james-dupree/bite-chords.htm
Привет, Гость.
Предлагаем пройти революционный курс по гитаре.
Подарок от PrimaNota.Ru, забирай!