PrimaNota.ru - самый крупный в мире бесплатный архив песенных текстов, аккордов, табулатур и нот


Jesse And The Kitty Paws - Song - таба, видео

Регистрация Запомнить меня
Войти через:  Facebook Google Twitter Vk Yandex Mail.ru

Jesse And The Kitty Paws - Song - таба, видео

Печатать
Просмотров: 32
-------------------------------------------------------------------------------
                             Song 1 - Jesse and the Kitty Paws
-------------------------------------------------------------------------------
Tabbed by: Jesse
E-mail:

Tuning: Standard

INTRO

Guitar 1             Guitar 2
e|---------xxxxx---|---------|
B|---------xxxxx---|-13------|
G|-5-------xxxxx---|-12-x12--|
D|-5-X12---xxxxx---|---------|
A|-3-------xxxxx---|---------|
E|---------xxxxx---|---------|
                     ^Play along with guitar 1

Guitar 1                                          Guitar 2
e|----------------------------------------------|----------------|
B|----------------------------------------------|----------------|
G|-3\4\5\6\7\8\9\10\11\12\13\14\15-\16\17b------|-5/4\5----5b----|
D|-x-x-x-x-x-x-x-x-x--x---x--x---x---x--x-------|-5/4\5-x4-5b----|
A|-1\2\3\4\5\6\7\8\9-\10\11-\12-\13-\14\15b-----|-3/2\3----3b----|
E|----------------------------------------------|----------------|
                                                   ^Play along with guitar 1

CHORUS
Guitar 1
e|---------------------------------------------------|
B|---------------------------------------------------|
G|-5-----4-----5-----4-----7-----6-----9-----7---\---|
D|-5-x8--5-x8--5-x8--5-x8--7-x8--7-x8--7-x8--7-x8\---|x2
A|-3-----2-----3-----2-----5-----4-----5-----5---\---|
E|---------------------------------------------------|

Guitar 2
e|------------------------------------------------------|
B|-5/4-2\4b--5/4-2\4b-----------9/7-6\7b--9/7-6/11b-----|
G|------------------------------------------------------|
D|------------------------------------------------------| x2
A|------------------------------------------------------|
E|------------------------------------------------------|

  
VERSE 

 
Guitar 1
e|---------------------------------------------------------|
B|---------------------------------------------------------|
G|-5----4----7----8----9----8----5----4----4----3----2-----|
D|-5-x8-5-x8-7-x8-7-x8-9-x8-9-x8-5-x8-5-x8-4-x8-4-x4-2-x4--|
A|-3----3----5----5----7----7----3----3----2----2----0-----|
E|---------------------------------------------------------|
 
Guitar 2
e|---------------------------------------------------------|
B|---------------------------------------------------------|
G|-5----4----7----8----9----8----5----4----4----3----2-----|
D|-x-x8-x-x8-x-x8-x-x8-x-x8-x-x8-x-x8-x-x8-x-x8-x-x4-x-x4--| |Palm mute
A|-3----3----5----5----7----7----3----3----2----2----0-----|
E|---------------------------------------------------------|

BRIDGE

Guitar 1
e|-----------------------------------------------------------------|
B|-----------------------------------------------------------------|
G|-5----4-----------5--------4---9-----7------6----9-----7---------|
D|-5----5-----------5--------5---7-----7------7----7-----7---------|
A|-3----2-----------3--------2---5-----5------4----5-----5---------|
E|-----------------------------------------------------------------|

Guitar 2 
e|-------------------------------------------------------------|
B|13-x8/12-x8-1010\13b13-x7/12x8\17-x8/15-x8-1414\17-x8/16-x8/-|
G|-------------------------------------------------------------|
D|-------------------------------------------------------------|
A|-------------------------------------------------------------|
E|-------------------------------------------------------------|

VERSE

 
Guitar 1
e|---------------------------------------------------------|
B|---------------------------------------------------------|
G|-5----4----7----8----9----8----5----4----4----3----2-----|
D|-5-x8-5-x8-7-x8-7-x8-9-x8-9-x8-5-x8-5-x8-4-x8-4-x4-2-x4--|
A|-3----3----5----5----7----7----3----3----2----2----0-----|
E|---------------------------------------------------------|
 
Guitar 2
e|---------------------------------------------------------|
B|---------------------------------------------------------|
G|-5----4----7----8----9----8----5----4----4----3----2-----|
D|-x-x8-x-x8-x-x8-x-x8-x-x8-x-x8-x-x8-x-x8-x-x8-x-x4-x-x4--| |Palm mute
A|-3----3----5----5----7----7----3----3----2----2----0-----|
E|---------------------------------------------------------|

CHORUS
Guitar 1
e|---------------------------------------------------|
B|---------------------------------------------------|
G|-5-----4-----5-----4-----7-----6-----9-----7---\---|
D|-5-x8--5-x8--5-x8--5-x8--7-x8--7-x8--7-x8--7-x8\---|x2
A|-3-----2-----3-----2-----5-----4-----5-----5---\---|
E|---------------------------------------------------|

Guitar 2
e|------------------------------------------------------|
B|-5/4-2\4b--5/4-2\4b-----------9/7-6\7b--9/7-6/11b-----|
G|------------------------------------------------------|
D|------------------------------------------------------| x2
A|------------------------------------------------------|
E|------------------------------------------------------|



************************************

| /   slide up
| \   slide down
| h   hammer-on
| p   pull-off
| ~   vibrato
| +   harmonic
| x   Mute note
| b   Bend
| pb  Pre-bend
| br  Bend release
| pbr Pre-bend release
| brb Bend release bend
| *   Palm mute

************************************
Добавлено: 09.10.2015
Другие материалы по этой песне:
  • Аккорды и текст

Страница создана 09.10.2015
http://primanota.ru/jesse-and-kitty-paws/song-chords.htm
Привет, Гость.
Предлагаем пройти революционный курс по гитаре.
Подарок от PrimaNota.Ru, забирай!