PrimaNota.ru - самый крупный в мире бесплатный архив песенных текстов, аккордов, табулатур и нот


Jess Gabriell Cron - Gretel And Hansel - таба, видео

Регистрация Запомнить меня
Войти через:  Facebook Google Twitter Vk Yandex Mail.ru

Jess Gabriell Cron - Gretel And Hansel - таба, видео

Печатать
Просмотров: 88
-------------------------------------------------------------------------------
  GRETEL AND HANSEL: GRETEL AND HANSEL (MAIN THEME) - Jess Gabriell Cron
-------------------------------------------------------------------------------
Tabbed by: Dylan Growcoot
E-mail: dylangrowcoot@gmail.com

Made primarily for Ukulele

Picking:

A|--------------------------------|     
E|----6-----6---------6----6------|             
C|-5----5-----5---5-----5----5----|      
G|---5----5-----5---5-----5----5--|     
                                                                        
                                                        
A|---------------------------4----|     
E|----6-----6---------6----6------|     
C|-4----4-----4---4-----4---------|     
G|---5----5-----5---5-----5----5--|     

Strings:

[strum]
A|-3-----5---2----3----3-----4---2----3-|       
E|-3-----3---2----3----3-----3---2----3-|
C|-3-----3---0----0----3-----3---0----0-|
G|-0-----0---0----0----0-----0---0----0-|

Accompaniment:
                                                        
A|-3-4-3--4-3--6-2--2-1----------4-3-6-2-|      
E|-3-3----3----6-2------4-3-2-3--3---6-2-|      
C|-3-3----3----0-0----------0----3---0-0-|      
G|-0-0----0----0-----------------0---0---|      

A|-3--1-3-4-3-1-6-2-|   
E|-3------------6-2-|   
C|-3------------0-0-|   
G|--------------0---|
Добавлено: 26.12.2015
Другие материалы по этой песне:
  • Аккорды и текст

Страница создана 26.12.2015
http://primanota.ru/jess-gabriell-cron/gretel-and-hansel-chords.htm
Привет, Гость.
Предлагаем пройти революционный курс по гитаре.
Подарок от PrimaNota.Ru, забирай!