PrimaNota.ru - самый крупный в мире бесплатный архив песенных текстов, аккордов, табулатур и нот


Jesper Munk - Morning Coffee - таба, видео

Регистрация Запомнить меня
Войти через:  Facebook Google Twitter Vk Yandex Mail.ru

Jesper Munk - Morning Coffee - таба, видео

Печатать
Просмотров: 114
-------------------------------------------------------------------------------
                             Jesper Munk - Mornig Coffee (acoustic)
-------------------------------------------------------------------------------
Tabbed by: Alex
Taken from this performance: https://m.youtube.com/watch?v=uh1BIoKXjas
Tuning: standard
The rhythm is hard to explain but quite easy to understand while listening to the song so 
I suggest doing that.

The chords are not that hard:
 (From low to high)
F   1332xx
Am7 5x555x
Gm7 3x333x
C7  x3231x and very briefly
G#m7 4x444x

Based on those chords, here's the main riff. The chord pattern is F, Am7, Gm7, C7 throughout
the whole song. 
As a transition between the chords he always hits the open low E string.

e|---------------------------------------------------------------------------| after the last E 
B|----------------------5-------------3---------1--1-------------------------| note you play the
G|-------2--------------5-------------3---------3--3--------------etc.-------| whole thing again
D|-------3--------------5-------------3---------2--2-------------------------| so you start over
A|-------3--------------------------------------3--3-------------------------| with the F.
E|---1----------0--5----------0--3----------0------------0--1----------------|

This is the basic idea of how it goes. While playing the intro (1st and 3rd time of going 
through the riff) and after the last "its a morning without you" line on the chorus he alters
the riff like this:


1. On the intro: (its also played on the outro thing: when he pauses singing, he plays this
and then goes on)
e|-------------------------------------------'-------------------------------| 
B|----------------------5--5---4------3---3---------1--1---------------------| 
G|-------2--------------5--5---4------3---3---------3--3----------etc.-------|
D|-------3--------------5--5---4------3---3---------2--2---------------------| 
A|-------3------------------------------------------3--3---------------------| 
E|---1----------0--5----5--5---4------3---3-----0------------0--1------------|


2. After the chorus: the A, D and g string part of the F is only hit quickly here
e|-------------------------------------------'-------------------------------| 
B|----------------------5--5---4------3---3---------1--1---------------------| 
G|-------2--------------5--5---4------3---3---------3--3----------etc.-------|
D|-------3--------------5--5---4------3---3---------2--2---------------------| 
A|-------3------------------------------------------3--3---------------------| 
E|---1---------1/5--5---5--5---4------3---3-----0------------0--1------------|

At the end of the song when he sings "its just another moring withoooouuuut
yooouuu" he plays this:

e|----------------------------|
B|---------0------------------|
G|---------2------------------|
D|------3-----3---------------|
A|----3---------3-------------|
E|--1-------------1-----------|

Have fun!



************************************

| /   slide up
| \   slide down
| h   hammer-on
| p   pull-off
| ~   vibrato
| +   harmonic
| x   Mute note
| b   Bend
| pb  Pre-bend
| br  Bend release
| pbr Pre-bend release
| brb Bend release bend

************************************
Добавлено: 12.06.2016
Вам также может быть интересно:
Другие материалы по этой песне:
  • Аккорды и текст

Страница создана 12.06.2016
http://primanota.ru/jesper-munk/morning-coffee-chords.htm
Привет, Гость.
Предлагаем пройти революционный курс по гитаре.
Подарок от PrimaNota.Ru, забирай!