PrimaNota.ru - самый крупный в мире бесплатный архив песенных текстов, аккордов, табулатур и нот


Jes Hudak - Different Worlds - таба, видео

Регистрация Запомнить меня
Войти через:  Facebook Google Twitter Vk Yandex Mail.ru

Jes Hudak - Different Worlds - таба, видео

Печатать
Просмотров: 195
-------------------------------------------------------------------------------
                             SONG NAME - Band Name
-------------------------------------------------------------------------------
Tabbed by:
E-mail:

Tuning: Standard
No Capo

i kind of screwed up getting the lyrics lined up 
but **essentially it is in 3x4 and every note is a beat**

EXAMPLE 
    D                    Bm         A         D
e|------------2----------------------------------------2---------------------|
B|--3------------3--------3---------2---------3-----------3------------------|
G|--2---------------2-----4-----4---2-----2---2--------------2---------------|
D|--------0------------------4---------2------------0------------------------|
A|--0--0------------------0---------0---------0--0---------------------------|
E|---------------------------------------------------------------------------|
    1- 2- 3   1- 2- 3-    1- 2- 3   1- 2- 3-  1- 2- 3  1- 2- 3

    D               Bm        A           D             Bm
e|----------2------------------------------------2---------------------------|
B|---3--------3------3--------2-----------3--------3-----3-------------------|
G|---2----------2----4----4---2--------2--2----------2---4----4--------------|
D|--------0-------------4----------2-----------0------------4----------------|
A|---0--0------------0--------0-----------0--0-----------0-------------------|
E|---------------------------------------------------------------------------|
     I've    Been              out on the  Oce-----an   
     Youve   been              runing  on  High   ground         With

    A         G                          Bm      A  
e|---------------------3-----------------------------------------------------|
B|--2---------3--------------3------------3------2---------------------------|
G|--2-------2-0------0-------------0------4---4--2---------------------------|
D|------2---------0--------------------------4-------------------------------|
A|--0---------2---------------------------0------0---------------------------|
E|---------------------------------------------------------------------------|
   Sail-ing a-long     trav- el-   ing    No-    where    And  (back to top)
   Just you a-round ur heart beats the    on----ly   

 END OF SECOND VERSE

   A     D            Bm       A
e|-------------2-------------------------------------------------------------|
B|-------3-------3-----3-------2---------------------------------------------|
G|----2--2---------2---4----4--2---2-----------------------------------------|
D|--2--------0------------4------2-------------------------------------------|
A|-------0-0-----------0-------0---------------------------------------------|
E|---------------------------------------------------------------------------|
        Sound

CHORUS
   D                  Bm         A
e|---------2-----------------------------------------2-----------------------|
B|--3--------3--------3----------2--------------3-----3----------------------|
G|--2----------2------4-------4--2--------2-----2------2---------------------|
D|-------0------------------4----------2-----------0-------------------------|
A|--0--0--------------0----------0--------------0-0--------------------------|
E|---------------------------------------------------------------------------|
    i      know that  Once in a  while we will find        The

    Bm            A                G 
e|----------------------------------------3----------------------------------|
B|--3-------------2----------------3-------3---3-----------------------------|
G|--4--------4----2-----------2----0---0----0--0-----------------------------|
D|--------4-------------2------------0---------------------------------------|
A|--0-------------0----------------2-----------2-----------------------------|
E|---------------------------------------------------------------------------|
    Sound of your heart beats with mi-ne           And when its

    Bm A                          D (strum)
e|--------------------------------3------------------------------------------|
B|--3--2--------------------------2------------------------------------------|
G|--4--2--------------------------3------------------------------------------|
D|--4--2--------------------------0------------------------------------------|
A|--------------------------------0------------------------------------------|
E|---------------------------------------------------------------------------|
   Ti-ime  Ill leave the ocean be-hind


Strum the rest of the song 

Verse 2

D 

   D          Bm
So I'll look,
A         D            Bm
Out for a lighthouse.
A               G
See through the fog.
           Bm    A
Search the horizon.

D          Bm
You'll be,
A         D       Bm
Like in a movie.
      A          G
Where everything stops;
            Bm   A  D
You can see clearly now.

    D  
But I know,
Bm        A               D
Once in a while we will find,
     Bm            A               G
The sound of your heart beats with mine.
              Bm A
And when it's time.     
                        D
I'll leave the ocean behind.



************************************

| /   slide up
| \   slide down
| h   hammer-on
| p   pull-off
| ~   vibrato
| +   harmonic
| x   Mute note
| b   Bend
| pb  Pre-bend
| br  Bend release
| pbr Pre-bend release
| brb Bend release bend

************************************
Добавлено: 30.07.2015
Другие материалы по этой песне:
  • Аккорды и текст

Страница создана 30.07.2015
http://primanota.ru/jes-hudak/different-worlds-chords.htm
Привет, Гость.
Предлагаем пройти революционный курс по гитаре.
Подарок от PrimaNota.Ru, забирай!