PrimaNota.ru - самый крупный в мире бесплатный архив песенных текстов, аккордов, табулатур и нот


Jerryc - Whose Autumn - таба, видео

Регистрация Запомнить меня
Войти через:  Facebook Google Twitter Vk Yandex Mail.ru

Jerryc - Whose Autumn - таба, видео

Печатать
Просмотров: 206
/ - slide up
\ - slide down
~ - vibrato
b - bend
r - release bend
h - hammer on
p - pull off
t - tapping (i'm not sure though whether in this song he uses tapping or harmonics,
since you still have to keep the C chord ringing, i still havent advanced that much
yet, but tapping works for me)

                    pm..
E|-------------------------------------------------------------|
B|---------8------------------7--/12\7-------------------------|
G|----7/9------7~---------6/8----------8\7-p5---7p5-7p5-7/9----|
D|--5---------------5-5-5-----------------------------------7~-|
A|-------------------------------------------------------------|
E|-------------------------------------------------------------|

E|-------------------------------------------------------------|
B|-------------------------------------------------------------|
G|--7p5-7p5-7/9-7~--b9-5~--------------------------------------|
D|-------------------------------------------------------------|
A|-------------------------------------------------------------|
E|-------------------------------------------------------------|


                    pm..
E|----------5-------------------------8--8-8-8-----------------|
B|-----5-------------------------5-------------5b7r5-----------|
G|--5----h7-----5-5-5--5--5-5-5----h7----------------7p5-------|
D|-------------------------------------------------------7\5---|
A|-------------------------------------------------------------|
E|-------------------------------------------------------------|


             C
E|---------------0---------------------------------------------|
B|--------------1-------------t15------------------------------|
G|-------------0------------------------t17--t15---------------|
D|--2/3-\-2---2--------t15------------------------t17----------|
A|-----------3-------------------------------------------------|
E|-------------------------------------------------------------|

questions and suggestions - spp8969@yahoo.com
Добавлено: 08.06.2012
Другие материалы по этой песне:

Страница создана 29.04.2012
http://primanota.ru/jerryc/whose-autumn-chords.htm
Привет, Гость.
Предлагаем пройти революционный курс по гитаре.
Подарок от PrimaNota.Ru, забирай!