PrimaNota.ru - самый крупный в мире бесплатный архив песенных текстов, аккордов, табулатур и нот


Jerryc - Rock On - таба, видео

Регистрация Запомнить меня
Войти через:  Facebook Google Twitter Vk Yandex Mail.ru

Jerryc - Rock On - таба, видео

Печатать
Просмотров: 150
-------------------------------------------------------------------------------
                             Rock On - JerryC
-------------------------------------------------------------------------------
Tabbed by: DaveWGuitar

Lots of people have asked me for my version of the intro so here it is.
Sorry it's not the whole song but hope this helps!

Email:

Tuning: Standard

         x  x  x  x  x  x             +
e|-------------------------------------------------------|
B|-------------------------------------------------------|
G|----------------------------3---4----------------------|
D|--2----2--2--2--2--2--2--------------------------------|
A|--2----2--2--2--2--2--2--------------------------------|
E|--0----0--0--0--0--0--0-------------3~-----0--3--0-----|

         x  x         x                  +    +
e|-------------------------------------------------------|
B|-------------------------------------------------------|
G|-------------2--p0-------------------------------------|
D|--2----2--2---------2--2-----------4--h5---------------|
A|--3----3--3---------3--0----2--3-----------------------|
E|--------------------------------------------5~---------|

         x  x  x  x  x  x             +
e|-------------------------------------------------------|
B|-------------------------------------------------------|
G|----------------------------3---4----------------------|
D|--2----2--2--2--2--2--2--------------------------------|
A|--2----2--2--2--2--2--2--------------------------------|
E|--0----0--0--0--0--0--0-------------3~-----0--3--0-----|

         x  x         x                 +   +
e|-------------------------------------------------------|
B|-------------------------------------------------------|
G|-------------2--p0------------------------4~-----------|
D|--2----2--2---------2--2-----------4--5----------------|
A|--3----3--3---------3--0----2--3-----------------------|
E|-------------------------------------------------------|

         x  x  x  x  x  x             +
e|-------------------------------------------------------|
B|-------------------------------------------------------|
G|----------------------------3---4----------------------|
D|--2----2--2--2--2--2--2--------------------------------|
A|--2----2--2--2--2--2--2--------------------------------|
E|--0----0--0--0--0--0--0-------------3~-----0--3--0-----|

         x  x         x                  +    +
e|-------------------------------------------------------|
B|-------------------------------------------------------|
G|-------------2--p0-------------------------------------|
D|--2----2--2---------2--2-----------4--h5---------------|
A|--3----3--3---------3--0----2--3-----------------------|
E|--------------------------------------------5~---------|

         x  x  x  x  x  x             +
e|-------------------------------------------------------|
B|-------------------------------------------------------|
G|----------------------------3---4----------------------|
D|--2----2--2--2--2--2--2--------------------------------|
A|--2----2--2--2--2--2--2--------------------------------|
E|--0----0--0--0--0--0--0-------------3~-----0--3--0-----|


         x x x x x x x x           x x x x    +
e|-------------------------------------------------------|
B|-------------------------------------------------------|
G|--------------------------------------------4~---------|
D|--2----2-2-2-2-2-2-2-2------2----2-2-2-2---------------|
A|--3----3-3-3-3-3-3-3-3------0----0-0-0-0---------------|
E|-------------------------------------------------------|

************************************

| /   slide up
| \   slide down
| h   hammer-on
| p   pull-off
| ~   vibrato
| +   harmonic
| x   Mute note
| b   Bend
| pb  Pre-bend
| br  Bend release
| pbr Pre-bend release
| brb Bend release bend

************************************
Добавлено: 31.05.2012
Другие материалы по этой песне:

Страница создана 02.04.2012
http://primanota.ru/jerryc/rock-on-chords.htm
Привет, Гость.
Предлагаем пройти революционный курс по гитаре.
Подарок от PrimaNota.Ru, забирай!