PrimaNota.ru - самый крупный в мире бесплатный архив песенных текстов, аккордов, табулатур и нот


Jerry Riggs - Radar Rider - таба, видео

Регистрация Запомнить меня
Войти через:  Facebook Google Twitter Vk Yandex Mail.ru

Jerry Riggs - Radar Rider - таба, видео

Печатать
Просмотров: 147
-------------------------------------------------------------------------------
                             Radar Rider - Jimmy Riggs
-------------------------------------------------------------------------------
Tabbed by: 5.mystline

Tuning: normal

Main riff: x = somehow muted        ^ = hold note        ~ = vibr

     x     x     ~    ^  x x x x x      x     x     ~          
e|------------------|---------------|------------------|---------------------|
B|------------------|---------------|------------------|---------------------|
G|------------------|---------------|------------------|---------------------|
D|-8-5---8-5---8-5--|-^--3-3-3-3-3--|-8-5---8-5---8-5--|-^--3-3-5-5-3--------| 2*
A|-8-5---8-5---8-5--|-^--3-3-3-3-3--|-8-5---8-5---8-5--|-^--1-1-3-3-1--------|
E|-6-3---6-3---6-3--|-^--1-1-1-1-1--|-6-3---6-3---6-3--|---------------------|

Verse:
   x x x x x x x x x x x x x x x x x x x x x x x x x x   x x
e|-----------------|-----------------|-----------------|---------------------|
B|-----------------|-----------------|-----------------|---------------------|
G|-----------------|-----------------|-----------------|---------------------| 
D|-----------------|-----------------|-----------------|-----3-3-5-5-3-------| 2*
A|-----------------|-----------------|-----------------|-----1-1-3-3-1-------|
E|-3-3-3-3-3-3-3-3-|-3-3-3-3-3-3-3-3-|-3-3-3-3-3-3-3-3-|-3-3-----------------|

Verse/bridge: (let it ring)
e|-0---------------|-----------------|-----------------|---------------------|
B|-1---------------|-----------------|-----------------|---------------------|
G|-5---------------|-----------------|-----------------|---------------------|
D|-5---------------|-----------------|-----------------|---------------------|
A|-3---------------|-----------------|-----------------|---------------------|
E|-----------------|-----------------|-----------------|---------------------|
              (let it ring)                                ~
e|-1---------------|-----------------|---4-----4-----4-|---4-----------------|
B|-3---------------|-----------------|-----------------|---------------------|
G|-3---------------|-----------------|-3-----3-----3---|-3-------------------|
D|-3---------------|-----------------|-----------------|---------------------|
A|-1---------------|-----------------|-----------------|---------------------|
E|-----------------|-----------------|-----------------|---------------------|


drum pattern:      Q = 1/4 note      K = 1/8 note

(open)
Hit-Hat|-Q--Q---Q--Q---|-Q---Q--Q---Q-|
Snare  |----K------K---|-----Q------Q-|
Bass   |-Q----K-Q----Q-|---K----K-K---|




************************************

i hope you'll enjoy it. any questions? -> E-mail: u.brink.91@googlemail.com

************************************
Добавлено: 04.07.2015
Другие материалы по этой песне:

Страница создана 04.07.2015
http://primanota.ru/jerry-riggs/radar-rider-chords.htm
Привет, Гость.
Предлагаем пройти революционный курс по гитаре.
Подарок от PrimaNota.Ru, забирай!