PrimaNota.ru - самый крупный в мире бесплатный архив песенных текстов, аккордов, табулатур и нот


Jerry Lee Lewis - Lewis Boogie - текст песни, бас-таба, видео

Регистрация Запомнить меня
Войти через:  Facebook Google Twitter Vk Yandex Mail.ru

Jerry Lee Lewis - Lewis Boogie - текст песни, бас-таба, видео

Печатать
Просмотров: 197
Уроки эстрадного вокала в Санкт-Петербурге
Авторы музыки: Jerry Lee Lewis
Авторы текста: Jerry Lee Lewis
This is a real Rock&Roll song. I play it this way in my band, and I always get applause, so.. ;)


-----------0--2-----------|
-------2------------------|      X4
---3----------------------|
--------------------------|

-------2---5--7-----------|
---3----------------------|      X2
--------------------------|
--------------------------|

-----------0--2-----------|
-------2------------------|      X2
---3----------------------|
--------------------------|

--0--4--7--9--------------|
--------------------------|      X1
--------------------------|
--------------------------|

-------2---5--7-----------|
---3----------------------|      X1
--------------------------|
--------------------------|

-----------0--2-----------|
-------2------------------|      X2
---3----------------------|
--------------------------|

And then you start from the beginning.
Have fun.

Don Gerben
Добавлено: 26.05.2012
Другие материалы по этой песне:
  • Аккорды и текст

Страница создана 26.05.2012
http://primanota.ru/jerry-lee-lewis/lewis-boogie-chords.htm
Привет, Гость.
Предлагаем пройти революционный курс по гитаре.
Подарок от PrimaNota.Ru, забирай!