PrimaNota.ru - самый крупный в мире бесплатный архив песенных текстов, аккордов, табулатур и нот


Jerry Hannan - Society - таба, видео

Регистрация Запомнить меня
Войти через:  Facebook Google Twitter Vk Yandex Mail.ru

Jerry Hannan - Society - таба, видео

Печатать
Просмотров: 135
Авторы музыки: Jerry Hannan

SOCIETY “INTO THE WILD” (Jerry Hannan) Official Website: http://jerryhannan.com/
This tab is one I made for a friend of mine. Performed mostly by Eddie Vedder, this song 
written by Jerry Hannan and this tab is for the version performed by Jerry Hannan.
(http://www.youtube.com/watch?v=8PRmH8gZrzw) There biggest difference, way I see it is 
much the rhythm of the chord changes and the solo in the middle.
Well, besides the obviously different singing voice, but that's irrelevant when it comes 
guitar tabs.
This is my first tab ever and I didn't really put that much work into it, for example 
solo tab isn't that precise when it comes to the rhythm but I'm pretty sure I got the 
right. Hope you enjoy it!
I couldn't be bothered writing it down, but he does a small hammer on sometimes when 
the Am on the D-string from empty to the second fret to give the Am some flavour. Common 
thing.

Capo on the 2nd fret (the solo is written with the numerical count starting from the capo)
Normal tuning (e B G D A E)
Chords:

|-0--|-0--|----|-3--|
|-1--|-1--|-1--|-3--|
|-0--|-2--|-2--|----|
|-2--|-2--|-3--|----|
|-3--|-0--|-3--|-2--|
|----|-0--|----|-3--|
 C    Am   F    G


Intro: Am


          G          C
Oh it's a mystery to me,
C               F                G
We have agreed, witch we had agreed.

        F                 G                  Am
And you think you have to want more then you need.
F                 G                Am
‘Till you have it all you won't be free.

      F            C
Society, you crazy breed
                  G               Am
I hope you're not lonely… without me

C                           G                   C
When you want more then you have, you think you need.
C                                F                    G
And when you think more then you want you're thoughts begin to bleed.
F                 G             Am
I think I need to find a bigger place,
               F                  G              Am
cause when you have more then you think you need more space


     F             C
Society, you crazy breed
                  G               Am
I hope you're not lonely… without me
     F            C
Society, crazy indeed
                G               Am
Hope you're not lonely… without me


SOLO:

|----------------------------------------------------------------------------------------------|
|------------------------------5-8----8-8h10-10-10-8--------6--6-5---------5--5-5--------------|
|------5---5-5-7-7--5h7-9----5--------------------------5-7--------7---5h7--------7-5b(1/4)----|
|--5h7--------------------------------------------------------------------------------------7--|
|----------------------------------------------------------------------------------------------|
|----------------------------------------------------------------------------------------------|

|------------------------------------------------------------------------------------------------|
|----------------------------------------6--6--6-6p5-----5-5-------------------------------------|
|------5---7b(1/4)--7-7-5b(1/4)------------------------------7-5-7----7b(1/4)-5---------5b(1/4)--|
|--5-7--------------------------7-----------------------------------------------7---5h7---------7|
|------------------------------------------------------------------------------------------------|
|------------------------------------------------------------------------------------------------|


         C              G                    C
There is those thinking more or less less is more
C                    F               G
But if less is more, how you keeping score?
          F               G                 Am
Means for every point you make you're level drops
F                 G                 Am
Kinda like you're starting from the top…. You cant do that

     F                  C
Society, you're a crazy breed
                  G               Am
I hope you're not lonely… without me
     F           C
Society, crazy indeed
                G                Am
Hope you're not lonely…. Without me
     F              C
Society, have mercy on me
                  G                Am
I hope you're not angry… if I disagree
     F         C
Society, crazy indeed
                G               Am
Hope you're not lonely………………….Without me
Добавлено: 18.05.2012
Другие материалы по этой песне:
  • Аккорды и текст

Страница создана 18.05.2012
http://primanota.ru/jerry-hannan/society-chords.htm
Привет, Гость.
Предлагаем пройти революционный курс по гитаре.
Подарок от PrimaNota.Ru, забирай!