PrimaNota.ru - самый крупный в мире бесплатный архив песенных текстов, аккордов, табулатур и нот


Jerry Garcia - Sugaree - таба, видео

Регистрация Запомнить меня
Войти через:  Facebook Google Twitter Vk Yandex Mail.ru

Jerry Garcia - Sugaree - таба, видео

Печатать
Просмотров: 36
Авторы музыки: Jerry Garcia
Авторы текста: Robert Hunter
SUGAREE

As recorded by Jerry Garcia
(From the 1972 Album GARCIA)

Words by Robert Hunter
Music by Jerry Garcia

Transcribed by Slowhand


Gtr I (E A D G B E) - 'Jerry Garcia - Electric Guitar'
Gtr II (E A D G B E) - 'Jerry Garcia - Acoustic Guitar'


 Intro
  Q=132
  B                        E
 12/8
  Gtr I (El. Gtr. w/ flanger effect)
  Q.    E E E Q.   E E E   e  E E E E E Q   E    +E  E E
|------------------------|--------x----------------------|
|-------x----------x-----|--------x----------------------|
|-------x----------x-----|--------x---------6pb8r(6)-4---|
|-------x---x-4----x-----|-2------x--------------------6-|
|-------------2----------|-------------------------------|
|------------------------|-------------------------------|
|
| Gtr II (Ac. Gtr.)
| Q   E Q   E Q.   Q   E   Q.     Q   E Q.        Q    E
|------------------------|-0------0---0-0---------0----0-|
|-4---4-4---4-4----4-----|-0------0---0-0---------0----0-|
|-4---4-4---4-4----4-----|-1------1---1-1---------1----1-|
|-4---4-4---4-4----4-----|-2------2---2-2---------2----2-|
|-2---2-2---2-2----2-----|-2------2---2-2---------2----2-|
|----------------------0-|-0------0---0-0---------0----0-|


  B
  q  E Q.    a Q   E E E E
|--------------------------|
|--------------------------|
|-4------------------4-----|
|------------4s6---4-4-----|
|--------------------6s4-2-|
|--------------------------|
|
| Q  E Q   E   Q.    Q   E
|--------------------------|
|-4--4-4---4---4-----4-----|
|-4--4-4---4---4-----4-----|
|-4--4-4---4---4-----4-----|
|-2--2-2---2---2-----2-----|
|------------------------0-|


  B
                  ~~~~~~~~~
  a E  E E Q  a E Q.   +E  E E
|------------------------------|
|------------------------------|
|------------------------------|
|-1s2--------------------------|
|-1s2-------------2----(2)-4s6-|
|-------------2s4--------------|
|
|   Q.     Q    E Q.    Q    E
|---0------0----0-0-----0----0-|
|---0------0----0-0-----0----0-|
|---1------1----1-1-----1----1-|
|---2------2----2-2-----2----2-|
|---2------2----2-2-----2----2-|
|---0------0----0-0-----0----0-|


  B                             E
  E E E Q.    Q   E E   +E  E   E  E E Q  E E  E E E E E
|-----------------------------|--------------------------|
|-----------------------------|-----------x-4------------|
|-----------------6-6b8r(6)-4-|-----------x-4------------|
|-4---------------------------|-4--------------------4-6-|
|-----------------------------|------------------4-6-----|
|-----------------------------|--------------------------|
|
| Q   E Q   E Q.    Q       E   Q.     Q  E Q.     Q   E
|-----------------------------|-0------0--0-0------0---0-|
|-4---4-4---4-4-----4---------|-0------0--0-0------0---0-|
|-4---4-4---4-4-----4---------|-1------1--1-1------1---1-|
|-4---4-4---4-4-----4---------|-2------2--2-2------2---2-|
|-2---2-2---2-2-----2---------|-2------2--2-2------2---2-|
|---------------------------0-|-0------0--0-0------0---0-|


  B                            E
  e E E E E  E  E  E E E E E   q   E e E E E  E E Q   E
|----------------------------|-------0------------------||
|-------4--------------------|-------0------------------||
|-------4--------------------|-1-----1------------9\----||
|-4--------------------------|-2---------2-2------------||
|-----------(2)-2----2-------|-2------------------------||
|------------------------0---|--------------------------||
|
| Q   E Q    E  Q.     Q   E   Q.    Q   E Q.     Q   E
|----------------------------|-0-----0---0-0------0---0-||
|-4---4-4----4--4------4-----|-0-----0---0-0------0---0-||
|-4---4-4----4--4------4-----|-1-----1---1-1------1---1-||
|-4---4-4----4--4------4-----|-2-----2---2-2------2---2-||
|-2---2-2----2--2------2-----|-2-----2---2-2------2---2-||
|--------------------------0-|-0-----0---0-0------0---0-||


   1st - 4th Verses
    $
    $$
    B                         E                     B
    H.        +Q.    +Q.      W.                    Q.   +E  E E H.
||--------------------------|---------------------|--------------------------|
||o-4---------(4)----(4)s===|=9-------------------|--------------------------|
||--4---------(4)----(4)s===|=9-------------------|-4----(4)-----------------|
||--4---------(4)----(4)s===|=9-------------------|-4----(4)-----------------|
||o-------------------------|---------------------|-2----(2)-----------------|
||--------------------------|---------------------|--------------------------|
|
|   Q.   Q  E  Q   E  Q   E   Q.   Q  E Q.   Q  E   Q.    Q    E Q   E Q  E
||--------------------------|-0----0--0-0----0--0-|--------------------------|
||o-4----4--4--4---4--4---4-|-0----0--0-0----0--0-|-4-----4----4-4---4-4--4--|
||--4----4--4--4---4--4---4-|-1----1--1-1----1--1-|-4-----4----4-4---4-4--4--|
||--4----4--4--4---4--4---4-|-2----2--2-2----2--2-|-4-----4----4-4---4-4--4--|
||o-2----2--2--2---2--2---2-|-2----2--2-2----2--2-|-2-----2----2-2---2-2--2--|
||--------------------------|-0----0--0-0----0--0-|--------------------------|


  E                     B                         E
  H.        Q.   Q  E   e  E E Q.    H.           H.        Q.   Q  E
|---------------------|-------------------------|---------------------|
|----------------0--0-|-4-----------------------|---------------------|
|----------------1--0-|-4-----------------------|---------------------|
|----------------2----|-4-----------------------|---------------------|
|---------------------|-2-----------------------|---------------------|
|---------------------|-------------------------|----------------4S=2-|
|
| Q.   Q  E Q.   Q  E   Q.     Q   E Q   E Q  E   Q.   Q  E Q.   Q  E
|-0----0--0-0----0--0-|-------------------------|-0----0--0-0----0--0-|
|-0----0--0-0----0--0-|-4------4---4-4---4-4--4-|-0----0--0-0----0--0-|
|-1----1--1-1----1--1-|-4------4---4-4---4-4--4-|-1----1--1-1----1--1-|
|-2----2--2-2----2--2-|-4------4---4-4---4-4--4-|-2----2--2-2----2--2-|
|-2----2--2-2----2--2-|-2------2---2-2---2-2--2-|-2----2--2-2----2--2-|
|-0----0--0-0----0--0-|-------------------------|-0----0--0-0----0--0-|


  B                         E
  e  E E Q.    H.           Q.   E E    +E  E  E E a  E Q
|-------------------------|---------------------------------||
|-4-----------------------|---------------------------------||
|-4-----------------------|--------6pb8r(6)-4---------------||
|-4-----------------------|--------------------6--------9s==||
|-------------------------|------------------------9s11-----||
|-------------------------|---------------------------------||
|
| Q.     Q   E Q   E Q  E   Q.   Q       E  Q.        Q   E
|-------------------------|-0----0-------0--0---------0---0-||
|-4------4---4-4---4-4--4-|-0----0-------0--0---------0---0-||
|-4------4---4-4---4-4--4-|-1----1-------1--1---------1---1-||
|-4------4---4-4---4-4--4-|-2----2-------2--2---------2---2-||
|-2------2---2-2---2-2--2-|-2----2-------2--2---------2---2-||
|-------------------------|-0----0-------0--0---------0---0-||


 Pre-Chorus
  F#m                 C#m
  Q.    E E E E E E E E  E
|-------2-----2-----2-------|
|---------2-----2-----2-----|
|-----------2-----2-----(2)-|
|-4-------------------------|
|---------------------------|
|---------------------------|
|
| Q   E Q   E E E E E E  E
|-2---2-2---2-2-2-2-2----4--|
|-2---2-2---2-2-2-2-2----5--|
|-2---2-2---2-2-2-2-2----6--|
|-4---4-4---4-4-4-4-4----6--|
|-4---4-4---4-4-4-4-4----4--|
|-2---2-2---2-2-2-2-2-------|


                             A                       E
  E E E E E E E  E E E E E   E  E E E E E E  E E E E E
|-4-----4-----4------4-----|-5------5-----5------5-----|
|---5-----5------5-----5---|----5-----5------5-----5---|
|-----6-----6------6-----6-|------6-----6------6-----0-|
|--------------------------|---------------------------|
|--------------------------|---------------------------|
|--------------------------|---------------------------|
|
| Q   E Q   E Q.     E E E   Q.     Q   E Q.     E E E
|-4---4-4---4-4------4---4-|-0------0---0-0------0---0-|
|-5---5-5---5-5------5---5-|-2------2---2-2------2---0-|
|-6---6-6---6-6------6---6-|-2------2---2-2------2---1-|
|-6---6-6---6-6------6---6-|-2------2---2-2------2---2-|
|-4---4-4---4-4------4---4-|-0------0---0-0------0---2-|
|--------------------------|-------------------------0-|


                       B
  E E E E E E E  E E E E S S
|-4-----4-----4------4-------|
|---5-----5------5-----5-----|
|-----4-----4------4-----6s8-|
|----------------------------|
|----------------------------|
|----------------------------|
|
| Q   E Q   E Q.     E E E
|-0---0-0---0-0------0-------|
|-0---0-0---0-0------0---4---|
|-1---1-1---1-1------1---4---|
|-2---2-2---2-2------2---4---|
|-2---2-2---2-2------2---2---|
|-0---0-0---0-0------0-------|


                               C#m
  E  E E E E E E E E E E  E    E E E E E E E E E E E E
|-7------7-----7-----7-------|-9-----9-----9-----9------|
|----7-----7-----7-----7-----|---9-----9-----9-----9----|
|------8-----8-----8-----(8)-|-----9-----9-----9-----9--|
|----------------------------|--------------------------|
|----------------------------|--------------------------|
|----------------------------|--------------------------|
|
| Q.     Q   E Q   E E E  E    Q   E Q   E Q   E E E E
|----------------------------|-4---4-4---4-4---4-4---4--|
|-4------4---4-4---4-4----4--|-5---5-5---5-5---5-5---5--|
|-4------4---4-4---4-4----4--|-6---6-6---6-6---6-6---6--|
|-4------4---4-4---4-4----4--|-6---6-6---6-6---6-6---6--|
|-2------2---2-2---2-2----2--|-4---4-4---4-4---4-4---4--|
|----------------------------|--------------------------|


  A                             E
  E  E E E  E E E  E E E  E E   E  E E E  E E E E E Q.
|-9------9------9------9------|-7------7------7-----7\----||
|---10-----10-----10-----10---|----9------9-----9---9\----||
|------9------9------9------9-|------9------9-----9-9\----||
|-----------------------------|---------------------------||
|-----------------------------|---------------------------||
|-----------------------------|---------------------------||
|
| Q    E Q    E Q    E E  E E   Q.     Q.     Q   E Q   E
|-0----0-0----0-0----0-0--0-0-|-0------0------0---0-0---0-||
|-2----2-2----2-2----2-2--2-2-|-0------0------0---0-0---0-||
|-2----2-2----2-2----2-2--2-2-|-1------1------1---1-1---1-||
|-2----2-2----2-2----2-2--2-2-|-2------2------2---2-2---2-||
|-0----0-0----0-0----0-0--0-0-|-2------2------2---2-2---2-||
|-----------------------------|-0------0------0---0-0---0-||


 Chorus
  B
  Q.   Q  E    +Q   E E E E
|---------------------------|
|---------------------------|
|------x--6pb8r(6)--4-------|
|---------------------------|
|-----------------------6s4-|
|---------------------------|
|
| Q.   Q  E     Q   E Q   E
|---------------------------|
|-4----4--4-----4---4-4---4-|
|-4----4--4-----4---4-4---4-|
|-4----4--4-----4---4-4---4-|
|-2----2--2-----2---2-2---2-|
|---------------------------|


  E                          C#m                   A
  Q   E E E E Q.    E E E     Q.   E E E E E E E E e
|--------------------------|-------------------------|
|-------x-----------x------|-------x-----------------|
|-------x-----------x------|-------x-----6---6-x-----|
|--------------------------|-/6----x-----6---6-x-----|
|-7---7-x---7-7-----x---1/-|-/4----x-----4---4-x-----|
|-0-----------0------------|-----------4-----------4-|
|
| Q.    Q   E Q   E Q   E     Q.   Q   E Q   E Q   e
|-0-----0---0-0---0-0---0--|--4----4---4-4---4-4---0-|
|-0-----0---0-0---0-0---0--|--5----5---5-5---5-5---2-|
|-1-----1---1-1---1-1---1--|--6----6---6-6---6-6---2-|
|-2-----2---2-2---2-2---2--|--6----6---6-6---6-6---2-|
|-2-----2---2-2---2-2---2--|--4----4---4-4---4-4---0-|
|-0-----0---0-0---0-0---0--|-------------------------|


                   E             B
  Q   E E    +E  E Q.    E E E   Q   E E E E e E E E E E
|------------------------------|-------------------------|
|------------------------------|-------x---x-------4-----|
|------------------------------|-------x---x-------4-----|
|-------4pb5r(4)-2-------------|-------x---x-------4-----|
|-0----------------------x-2-4-|-2-----------2-----------|
|------------------------------|-----------------------0-|
|
| Q.    Q        E Q   E Q   E   Q.    Q   E Q   E Q   E
|-0-----0--------0-0---0-0---0-|-------------------------|
|-2-----2--------2-0---0-0---0-|-4-----4---4-4---4-4---4-|
|-2-----2--------2-1---1-1---1-|-4-----4---4-4---4-4---4-|
|-2-----2--------2-2---2-2---2-|-4-----4---4-4---4-4---4-|
|-0-----0--------0-2---2-2---2-|-2-----2---2-2---2-2---2-|
|------------------0---0-0---0-|-------------------------|


  E
  E  E E E E E E Q.     E.   S
|--------------------------------|
|--------------------------------|
|-1------------1-----------------|
|-2------2-----2-----------------|
|-2------2-----2--------1----2s==|
|-0------0---0-------------------|
|
| Q.     Q   E Q    E Q    E
|-0------0---0-0----0-0----0-----|
|-0------0---0-0----0-0----0-----|
|-1------1---1-1----1-1----1-----|
|-2------2---2-2----2-2----2-----|
|-2------2---2-2----2-2----2-----|
|-0------0---0-0----0-0----0-----|


                                                 To Coda
                                                 To Coda
  C#m                A                  E
  Q.   Q  E Q  E e E E   Q   E    +E  E E E E E e S S E
|----------------4-----|---------------------------------|
|------x---------5-----|---------------------------------|
|------x--x------6-----|---------------------------------|
|------x--x------6-----|-----4pb5r(4)p2------------------|
|-4---------4--4-----0-|-0--------------4-2-----2--------|
|----------------------|------------------0-----0-2-3s4--|
|
| Q.   Q  E Q  E Q   e   Q.        Q    E Q   E Q     E
|-4----4--4-4--4-4---0-|-0---------0----0-0---0-0-----0--|
|-5----5--5-5--5-5---2-|-2---------2----2-0---0-0-----0--|
|-6----6--6-6--6-6---2-|-2---------2----2-1---1-1-----1--|
|-6----6--6-6--6-6---2-|-2---------2----2-2---2-2-----2--|
|-4----4--4-4--4-4---0-|-0---------0----0-2---2-2-----2--|
|----------------------|------------------0---0-0-----0--|


 1.
  B                             E
  E  E E E E E Q   E    +S  +E. E
|---------------------------------|
|--------x------------------------|
|--------x---x-----6b8==(6)r(6)---|
|-4------x---x--------------------|
|-2----------x--------------------|
|---------------------------------|
|
| Q.     Q   E Q.        Q      E
|-------------------------------0-|
|-4------4---4-4---------4------0-|
|-4------4---4-4---------4------1-|
|-4------4---4-4---------4------2-|
|-2------2---2-2---------2------2-|
|-------------------------------0-|


                               B                                E
  ~~             ~~
  Q.   E E   +E  Q.    E E E   e  E E Q.    Q    E    +e   E    +E
|----------------------------|--------------------------------------|
|----------------------------|-4------------7----7----(7)--7--------|
|-6----6-6b8-(6)-4-----------|-4------------6b8--6b8==(6)r-6pb8r(6)-|
|------------------------4h6-|--------------------------------------|
|----------------------------|--------------------------------------|
|----------------------------|--------------------------------------|
|
| Q.   Q      E  Q   E Q   E   Q.     Q   E Q.         Q         E
|-0----0------0--0---0-0---0-|-----------------------------------0--|
|-0----0------0--0---0-0---0-|-4------4---4-4----------4---------0--|
|-1----1------1--1---1-1---1-|-4------4---4-4----------4---------1--|
|-2----2------2--2---2-2---2-|-4------4---4-4----------4---------2--|
|-2----2------2--2---2-2---2-|-2------2---2-2----------2---------2--|
|-0----0------0--0---0-0---0-|-----------------------------------0--|


  Q   +S  S +E. S E Q.    +E  E E
|-----------------------------------||
|-7---(7)-7-(7)-7---7-----(7)------o||
|-6---(6)-4-(4)-6p4-4-----(4)-4-----||
|-----------------------------4h6---||
|----------------------------------o||
|-----------------------------------||
|
| Q.         Q    E Q   E  Q    E
|-0----------0----0-0---0--0----0---||
|-0----------0----0-0---0--0----0--o||
|-1----------1----1-1---1--1----1---||
|-2----------2----2-2---2--2----2---||
|-2----------2----2-2---2--2----2--o||
|-0----------0----0-0---0--0----0---||


  2.
  B                           E
                                              ~~
  E  E E a Q  E +Q.   e E E   Q     +E  E E E H.
|---------------------------|----------------------------|
|-4-----------7-(7)---9-----|----------------------------|
|-4------6s8--------------x-|-6pb8r=(6)s4-4h6p4----------|
|-4-------------------------|----------------------------|
|---------------------------|----------------------------|
|---------------------------|----------------------------|
|
| Q.       Q  E  Q.   Q   E   Q.        Q   E Q   E Q  E
|---------------------------|-0---------0---0-0---0-0--0-|
|-4--------4--4--4----4---4-|-0---------0---0-0---0-0--0-|
|-4--------4--4--4----4---4-|-1---------1---1-1---1-1--1-|
|-4--------4--4--4----4---4-|-2---------2---2-2---2-2--2-|
|-2--------2--2--2----2---2-|-2---------2---2-2---2-2--2-|
|---------------------------|-0---------0---0-0---0-0--0-|


  B
                           |------4:3------|
  +Q   E Q.    +Q   E     +E   E     +E    E
|--------9-----(9)--9b10==(9)r-9pb10r(9)p==7--|
|---------------------------------------------|
|-(4)-----------------------------------------|
|---------------------------------------------|
|---------------------------------------------|
|---------------------------------------------|
|
|  Q.    Q   E  Q.         Q             E
|---------------------------------------------|
|--4-----4---4--4----------4-------------4----|
|--4-----4---4--4----------4-------------4----|
|--4-----4---4--4----------4-------------4----|
|--2-----2---2--2----------2-------------2----|
|---------------------------------------------|


              D.S. al Coda &
  E
  Q.   E E E +H.
|-7----7h9p7-(7)/----------||
|--------------------------||
|--------------------------||
|--------------------------||
|--------------------------||
|--------------------------||
|
| Q.   Q   E  Q    E Q  E
|-0----0---0--0----0-0--0--||
|-0----0---0--0----0-0--0--||
|-1----1---1--1----1-1--1--||
|-2----2---2--2----2-2--2--||
|-2----2---2--2----2-2--2--||
|-0----0---0--0----0-0--0--||


  B                       E
  Q.   E E E Q.   E E E   Q.   E E E Q.      a Q  E
|-----------------------|------0--------------------|
|------x----------x-----|------0--------------------|
|------x----------x-----|------1-----0tr1----0h1----|
|------x----------x---4-|-2-----------------------4-|
|-2---------------------|-2-------------------------|
|-----------------------|-0-------------------------|
|
| Q.   Q   E Q.   Q   E   Q.   Q   E Q     E   Q  E
|-----------------------|-0----0---0-0-----0---0--0-|
|-4----4---4-4----4---4-|-0----0---0-0-----0---0--0-|
|-4----4---4-4----4---4-|-1----1---1-1-----1---1--1-|
|-4----4---4-4----4---4-|-2----2---2-2-----2---2--2-|
|-2----2---2-2----2---2-|-2----2---2-2-----2---2--2-|
|-----------------------|-0----0---0-0-----0---0--0-|


  B
  E  E E E E E E  E E Q.
|----------------11s9-------|
|--------4------------------|
|--------4-----9s11s9-8\----|
|--------4------------------|
|-2-------------------------|
|---------------------------|
|
| Q.     Q   E Q.     Q   E
|---------------------------|
|-4------4---4-4------4---4-|
|-4------4---4-4------4---4-|
|-4------4---4-4------4---4-|
|-2------2---2-2------2---2-|
|---------------------------|


              D.S.S. al Dbl. Coda &&
  E                                  B
  E  E E  E  E E Q.    +E  S S E     Q.   E E a E Q   E Q  E
|---------4s=2---0-----(0)--------||--------------------------|
|----------------0-----(0)--------||------4-------------------|
|----2s4-(4)s2-1-1-----(1)--------||------4-------------------|
|---------------------------------||------4---4s6-4-----------|
|---------------------------------||-2----------------6-5--4--|
|--------------------------0h2s4--||--------------------------|
|
| Q.      Q    E Q   E  Q      E     Q.   Q     E Q.    Q  E
|-0-------0----0-0---0--0------0--||--------------------------|
|-0-------0----0-0---0--0------0--||-4----4-----4-4-----4--4--|
|-1-------1----1-1---1--1------1--||-4----4-----4-4-----4--4--|
|-2-------2----2-2---2--2------2--||-4----4-----4-4-----4--4--|
|-2-------2----2-2---2--2------2--||-2----2-----2-2-----2--2--|
|-0-------0----0-0---0--0------0--||--------------------------|


  E
  E  E E E E E Q  E E E S S
|--------x--------0-x-------|
|--------x-----0--0-x-------|
|--------x-----1--1-x-------|
|--------x-----2--2-x-------|
|-2------------2--------1s2s|
|------0-----0--------------|
|
| Q.     Q   E Q  E Q   E
|-0------0---0-0--0-0---0---|
|-0------0---0-0--0-0---0---|
|-1------1---1-1--1-1---1---|
|-2------2---2-2--2-2---2---|
|-2------2---2-2--2-2---2---|
|-0------0---0-0--0-0---0---|


  C#m                      A         E
  Q.   E E E Q.    Q   E   Q   E E S S E E E E E E E
|------------------------|---------------------------||
|------5-----------------|---------------------------||
|------6-----------------|---------------------------||
|------6-----------6\----|---------------------------||
|-4----------------4\--0-|-0---0-0-----0-2h4-2-----2-||
|----------4-------------|---------4-4---------3h4---||
|
| Q.   Q   E Q   E Q   e   Q.    Q     E Q   E Q   E
|-4----4---4-4---4-4---0-|-0-----0-----0-0---0-0---0-||
|-5----5---5-5---5-5---2-|-2-----2-----2-0---0-0---0-||
|-6----6---6-6---6-6---2-|-2-----2-----2-1---1-1---1-||
|-6----6---6-6---6-6---2-|-2-----2-----2-2---2-2---2-||
|-4----4---4-4---4-4---0-|-0-----0-----0-2---2-2---2-||
|------------------------|---------------0---0-0---0-||


 Outro
  B
  Q   E q  E E  a Q  Q   E
|--------------------------|
|-------4------------------|
|-------4------------------|
|-------4--4----4s6--4\----|
|-2----------2-------------|
|--------------------------|
|
| Q.    Q  E Q.      Q   E
|--------------------------|
|-4-----4--4-4-------4---4-|
|-4-----4--4-4-------4---4-|
|-4-----4--4-4-------4---4-|
|-2-----2--2-2-------2---2-|
|--------------------------|


  E                            C#m
  E  E E E E E a q  E Q  S S   Q.   E E E Q.   Q  E
|--------x----------x--------|-----------------------|
|--------x------------0------|------5-----5----------|
|--------x-----0h1----1------|------6-----6----6s=2--|
|--------x---2--------2------|------6-----6-------2--|
|-x----x--------------2--1s2s|=4----------4----------|
|-x----x---------------------|----------4------------|
|
| Q.     Q   E   Q  E Q  E     Q.   Q   E Q.   Q  E
|-0------0---0---0--0-0--0---|-4----4---4-4----4--4--|
|-0------0---0---0--0-0--0---|-5----5---5-5----5--5--|
|-1------1---1---1--1-1--1---|-6----6---6-6----6--6--|
|-2------2---2---2--2-2--2---|-6----6---6-6----6--6--|
|-2------2---2---2--2-2--2---|-4----4---4-4----4--4--|
|-0------0---0---0--0-0--0---|-----------------------|


  A                           E                      B
  <
  Q  E E  E E E  E E E  E E   H.      +Q.   +Q   E    W.              +W.
|---------------------------|-0-------(0)---(0)----|----------------|--------*|
|---------------------------|-0-------(0)---(0)----|-^4-------------|-(4)----*|
|-2--2-2--2-2-2--2-2-2--2---|-1-------(1)---(1)----|-^4-------------|-(4)----*|
|-2--2-2--2-2-2--2-2-2--2---|-2-------(2)---(2)----|-^4-------------|-(4)----*|
|-0--0-0--0-0-0--0-0-0--0---|-2-------(2)---(2)----|-^2-------------|-(2)----*|
|-------------------------0-|----------------------|----------------|--------*|
|
| Q  E Q.     Q.     Q.       W.                      W.              +W.
|-0--0-0------0------0------|-0--------------------|----------------|--------*|
|-2--2-2------2------2------|-0--------------------|--4-------------|-(4)----*|
|-2--2-2------2------2------|-1--------------------|--4-------------|-(4)----*|
|-2--2-2------2------2------|-2--------------------|--4-------------|-(4)----*|
|-0--0-0------0------0------|-2--------------------|--2-------------|-(2)----*|
|---------------------------|-0--------------------|----------------|--------*|


Duration Legend
---------------
W - whole; H - half; Q - quarter; E - 8th; S - 16th; T - 32nd; X - 64th; a - acciaccatura
+ - note tied to previous; . - note dotted; .. - note double dotted
Uncapitalized letters represent notes that are staccato (1/2 duration)
Irregular groupings are notated above the duration line
Duration letters will always appear directly above the note/fret number it represents the
duration for.  Duration letters with no fret number below them represent rests.  Multi-
bar rests are notated in the form Wxn, where n is the number of bars to rest for.  Low
melody durations appear below the staff

Tablature Legend
----------------
 h   - hammer-on
 p   - pull-off
 b   - bend
 pb  - pre-bend
 r   - bend release (if no number after the r, then release immediately)
 /\  - slide into or out of (from/to "nowhere")
 s   - legato slide
 S   - shift slide
  - natural harmonic
[n]  - artificial harmonic
n(n) - tapped harmonic
 ~   - vibrato
 tr  - trill
 T   - tap
 TP  - trem. picking
 PM  - palm muting
\n/  - tremolo bar dip; n = amount to dip
 \n  - tremolo bar down
 n/  - tremolo bar up
/n\  - tremolo bar inverted dip
 =   - hold bend; also acts as connecting device for hammers/pulls
 <>  - volume swell (louder/softer)
 x   - on rhythm slash represents muted slash
 o   - on rhythm slash represents single note slash

Misc Legend
-----------
 |  - bar
||  - double bar
||o - repeat start
o|| - repeat end
*|  - double bar (ending)
 :  - bar (freetime)
 $  - Segno
 &  - Coda
Tempo markers -  = BPM(8/16=s8/s16), where s8 = swing 8ths, s16 = swing 16ths
Добавлено: 04.05.2016
Другие материалы по этой песне:

Страница создана 04.05.2016
http://primanota.ru/jerry-garcia/sugaree-chords.htm
Привет, Гость.
Предлагаем пройти революционный курс по гитаре.
Подарок от PrimaNota.Ru, забирай!