PrimaNota.ru - самый крупный в мире бесплатный архив песенных текстов, аккордов, табулатур и нот


Jerry Garcia & David Grisman - Walkin Boss - таба, видео

Регистрация Запомнить меня
Войти через:  Facebook Google Twitter Vk Yandex Mail.ru

Jerry Garcia & David Grisman - Walkin Boss - таба, видео

Печатать
Просмотров: 50
-------------------------------------------------------------------------------
                             Walkin' Boss - Jerry Garcia and David Grisman
-------------------------------------------------------------------------------
Tabbed by: Kent

Tuning: Standard

Whole song is 2 chords -- Dm and C -- with some inevitable riffs thrown in.

Intro (and outro)

e|--------------------------------------------------------------------------|
B|--3-1---3----3-1----------3-1---3----3-1----------------------------------|
G|-2-2-0h2-0--2-2-0-2-0----2-2-0h2-0--2-2-0-2-0-----------------------------|
D|---------------------3-0---------------------3-0--0--3-2-3-0--------0--3-2|
A|--------------------------------------------------------------3-2-3-------|
E|--------------------------------------------------------------------------|

e|--------------------------------------------------------------------------|
B|--------------------------------------------------------------------------|
G|--0-2-0-------------------------------------------0-2-0-------------------|
D|-3-----3-0--0--3-2-3--2-0-2---------0-2-0--3-2-3-------3-0----------------|
A|-----------------------------3-2-3----------------------------------------|
E|--------------------------------------------------------------------------|


Here's a nice approximation of what Jerry does for all the verses. David 
does a nice echo for all the riffs. The indicated chords are what is strummed
between picking the riff.
        Dm          C           C           C              Dm
e|--------------------------------------------------------------------------|
B|--------------------------------------------------------------------------|
G|-2-0--------------------------------------0-----0h2-2-0-------------------|
D|----3-0----------------------------------2-------------3-0----------------|
A|--------------0-2-3-------0-2-3---------3---------------------------------|
E|--------------------------------------------------------------------------|

repeat a lot:

Walkin [Dm] boss
Walkin [C] boss
Walkin [C] boss
I [C] don't belong to [Dm] you.

I belong
I belong
I belong
to that steel drivin' crew

You work one day
Work one day
Work one day
then go lay around the shanty too.

Walkin boss....

I belong....

When I ask that boss
for a job
for a job
he said son, "What can you do?"

I can line a jack
Drive a track
Drive a track
I can pick and shovel too.

Walkin boss...

I belong...

instrumental stuff.....

Work one day...

Walkin boss.....

I belong....

************************************

| /   slide up
| \   slide down
| h   hammer-on
| p   pull-off
| ~   vibrato
| +   harmonic
| x   Mute note
| b   Bend
| pb  Pre-bend
| br  Bend release
| pbr Pre-bend release
| brb Bend release bend

************************************
Добавлено: 21.04.2016
Другие материалы по этой песне:
  • Аккорды и текст

Страница создана 21.04.2016
http://primanota.ru/jerry-garcia-and-david-grisman/walkin-boss-chords.htm
Привет, Гость.
Предлагаем пройти революционный курс по гитаре.
Подарок от PrimaNota.Ru, забирай!