PrimaNota.ru - самый крупный в мире бесплатный архив песенных текстов, аккордов, табулатур и нот


Jerry Garcia & David Grisman - Rosa Lee Mcfall - таба, видео

Регистрация Запомнить меня
Войти через:  Facebook Google Twitter Vk Yandex Mail.ru

Jerry Garcia & David Grisman - Rosa Lee Mcfall - таба, видео

Печатать
Просмотров: 48
Standard Tuning
Tempo:120
Originally written by Charlie Monroe

Taken off The Pizza Tapes (Garcia, Grisman, Rice)

These are the chords, and that little lick that Garcia does in the beginning and end. Im 
even gunna try to tab out Rice's solo.

                            E
e-------------------------------|
B-------------------------------|
G-------------------------------|     x2
D-------------2(2)-2(2)-2(2)----|
A---2-4-2-4-0-------------------|
E-------------0--0---0---0------|

 Jerry's solo  E                                   C#m               E          C#m    B 
            E          B           E
e--------------------------------------------------------------------|
B-------------------------5-5------------5-5-5-----------------------|
G-------4-h6-4---------4h6-6-6p4---4----4-6-6-6-4--4-----------------|
D---4/6-------\6-2--4/6-----------6--4/6----------6--6\-2----2-------|
A--------------------------------------------------------2h4--4-2----|
E----------------------------------------------------------------2-0-|

Lyrics:


E
Out on the lonely hillside
     C#m           E
In a cabin low and small
          C#m              E
Lived the sweetest rose of color
   B          E
My Rosa Lee McFall

I asked her to be my darling
And this is what she said
You know that I will only be happy
When you and I are wed

*Grisman mando solo*

Her hair was brightsome color
And her voice was sweet to me
I know that I will only be happy
And I thought that she loved me

I asked her to be my darling
And this is what she said
You know that I will only be happy
When you and I are wed

*Rice gitfiddle solo*

I've searched the wide world over
In the cities great and small
But I've never found another
Like my Rosa Lee McFall

Then God way up in heaven
One day for her did call
I lost my bride, oh how I loved her
My Rosa Lee McFall

 Jerry's outro solo  E                                   C#m               E          
   B              E          B           E
e---------------------------------------7-9h7-7h9h7--------------------------|
B-------------------------5-5--------7/9-----9-----9\7b8-7---5---------------|
G-------4-h6-4---------4h6-6-6p4---4-------------------8--4/6-6h4-----1------|
D---4/6-------\6-2--4/6-----------6-------------------------------6\-2-4-2---|
A-------------------------------------------------------------------------4--|
E----------------------------------------------------------------------------|

e-------------------------------------|
B-------------------------------------|
G-------------------------------------|
D---2---------------------------------|
A-2-----------------------------------|
E------0------------------------------|
Out on the lonely hillside
In a cabin low and small
Lived the sweetest rose of color
My Rosa Lee McFall

***************************************
This is my first tab, the end lick of the outro solo MAY be a little rough. watch for 
quarter and sixteenth notes in the solos. This was taken directly off of the pizza tapes. 
to the recording to get the feel. enjoy!
Добавлено: 21.04.2016
Другие материалы по этой песне:
  • Аккорды и текст

Страница создана 21.04.2016
http://primanota.ru/jerry-garcia-and-david-grisman/rosa-lee-mcfall-chords.htm
Привет, Гость.
Предлагаем пройти революционный курс по гитаре.
Подарок от PrimaNota.Ru, забирай!