PrimaNota.ru - самый крупный в мире бесплатный архив песенных текстов, аккордов, табулатур и нот


Jerry Cantrell - Solitude - аккорды и текст, таба, видео

Регистрация Запомнить меня
Войти через:  Facebook Google Twitter Vk Yandex Mail.ru

Jerry Cantrell - Solitude - аккорды и текст, таба, видео

Печатать
Просмотров: 167
Уроки эстрадного вокала в Санкт-Петербурге
Solitude
Jerry Cantrell
----------------------------------------------------------------------------------------------------
                                      SOLITUDE - Jerry Cantrell                                      
----------------------------------------------------------------------------------------------------
Tabbed by: Adrian Hutchinson
E-mail: adrianmpc@yahoo.com

Tuning: 1 step down = DGCFAD



Intro: play x 2

                                                   
e |-----------------------1-1-1-1-------0--0-0-0-0-|
B |-2p0-------0-2---------0-0-0-0---3-2-2--2-2-2-2-|
G |-2---2---------2-----2-2-2-2-2---2-2-2--2-2-2-2-|
D |-2-----2---------2-2/3-3-3-3-3---2-2-2--2-2-2-2-|
A |-0-------0---------------------0--------0-0-0-0-|
E |------------------------------------------------|

Verse Riff: play x 6

    There's         no              out             downside..
         
e |-------0---------------0---------------2---------------0---------|
B |---------0---------------3-----------3---3---------------0-------|
G |-----------0---------0-----0-------2-------2---2-----2-----2---2-|
D |-----2-------2-----2---------2---0-----------0-----2---------2---|
A |---2-----------2-3-------------3-----------------0---------------|
E |-0---------------------------------------------------------------|

Pre-Chorus Riff: play x 1

    When hurting yourself..                       Take the time...                   Or seal your
e |---3-3-3-3-3-3--3--3-3-3--3-3-3-3-3--3--3-3-3--0-0-0-0--3-3-3-3--0-0-0-0--0-0-0-0-0-0-|
B |---3-3-3-3-3-2--2--2-2-2--3-3-3-3-3--2--2-2-2--0-0-0-0--3-3-3-3--0-0-0-0--3-3-3-3-3-3-|
G |---0-0-0-0-0-3--3--3-3-3--0-0-0-0-0--3--3-3-3--2-2-2-2--0-0-0-0--0-0-0-0--0-0-0-0-0-0-|
D |---0-0-0-0-0-0--0--0-0-0--0-0-0-0-0--0--0-0-0--2-2-2-2--0-0-0-0--2-2-2-2--2-2-2-2-2-2-|
A |---2-2-2-2-2--------------2-2-2-2-2------------0-0-0-0--2-2-2-2--2-2-2-2--3-3-3-3-3-3-|
E |---3-3-3-3-3--------------3-3-3-3-3---------------------3-3-3-3--0-0-0-0--------------|

Chorus Riff: play x 8

    Doom...           
e |-0-0-0-0--0-0-0-3--|
B |-0-0-0-0--3-3-3-2--|
G |-0-0-0-0--0-0-0-3--|
D |-2-2-2-2--2-2-2-0--|
A |-2-2-2-2--3-3-3----|
E |-0-0-0-0-----------|


************************************

| /   slide up
| \   slide down
| h   hammer-on
| p   pull-off
| ~   vibrato
| +   harmonic
| x   Mute note
| b   Bend
| pb  Pre-bend
| br  Bend release
| pbr Pre-bend release
| brb Bend release bend

************************************
Добавлено: 26.11.2014
Другие материалы по этой песне:
  • Аккорды и текст

Страница создана 08.05.2012
http://primanota.ru/jerry-cantrell/solitude-chords.htm
Привет, Гость.
Предлагаем пройти революционный курс по гитаре.
Подарок от PrimaNota.Ru, забирай!