PrimaNota.ru - самый крупный в мире бесплатный архив песенных текстов, аккордов, табулатур и нот


Jerry Cantrell - She Was My Girl - аккорды и текст, таба, видео

Регистрация Запомнить меня
Войти через:  Facebook Google Twitter Vk Yandex Mail.ru

Jerry Cantrell - She Was My Girl - аккорды и текст, таба, видео

Печатать
Просмотров: 164
Уроки эстрадного вокала в Санкт-Петербурге
Авторы: Jerry Cantrell

She Was My Girl
Jerry Cantrell



Date: Wed, 16 Apr 2003 14:11:22 +0100 (BST)
From: chris.riley2@btopenworld.com
Subject: c/cantrell_jerry/she_was_my_girl.crd

Artist: Jerry Cantrell
Album: Degradation trip amp; Spider man

I couldnt belive this wasnt tabbed    its such a great song 

its very simple just lis. 2 tha trak 2 get tha rythm

Standard tuning but can be used in drop D

Versey type main riff:

----------------------------------
----------------------------------
----------------------------------
-8-8--9-9-9--8-8--9-9-9-----------
-8-8--9-9-9--8-8--9-9-9-----------
-6-6--7-7-7--6-6--7-7-7-----------

Chorus:
-----------------------------------
-----------------------------------
-----------------------------------
-8-8-8--8--6--11-11-11-11-11-------
-8-8-8--8--6--11-11-11-11-11-------
-6-6-6--6--4--9--9--9--9--9--------

enjoy 

if any 1 works out the solo then send it 2 my e-mail ad.


Добавлено: 04.11.2013
Другие материалы по этой песне:
  • Аккорды и текст

Страница создана 23.03.2012
http://primanota.ru/jerry-cantrell/she-was-my-girl-chords.htm
Привет, Гость.
Предлагаем пройти революционный курс по гитаре.
Подарок от PrimaNota.Ru, забирай!