PrimaNota.ru - самый крупный в мире бесплатный архив песенных текстов, аккордов, табулатур и нот


Jerry Cantrell - Psychotic Break - аккорды и текст, таба, бас-таба, видео

Регистрация Запомнить меня
Войти через:  Facebook Google Twitter Vk Yandex Mail.ru

Jerry Cantrell - Psychotic Break - аккорды и текст, таба, бас-таба, видео

Печатать
Просмотров: 140
Psychotic Break
Jerry Cantrell
		   This is the best song on the album! This should be right:

Tuning : 1 step down + dropped C  C,G,C,F,A,d

Notation:
--7b(9)---- bend 1 step
--7b(9-9)-- bend 1 step and pick while holding the bend
--7b(9r7)-- bend 1 step and release to first position (pick only before bend)
--7h9------ hammer on
--9p7------ pull off
--7/9-----  slide from 7 to 9
-7-/9-----  pick 7 then rest then slide
AH          pinched harmonics
harm        natural harmonics
pm          palm mute
/\/\/\/\    wide vibrato with tremolo bar
    very fast and wery wide vibrato with tremolo bar
~~~~~~~~    vibrato with fret hand
wah:  o     open pedal (bass)
      +     closed pedal (treble)

Guitar 1:
Riff A:
d:-|----------------|-
A:-|---3------------|-
F:-|---2------------|-
C:-|---0------------|-
G:-|---0------------|-
C:-|---0------------|-



Riff B:
d:-|------------------------------------------------------------|-
A:-|-------------------------3----3-------------------------3---|-
F:-|------------------5------2----2-4-----------------------2---|-
C:-|---3--------5-----5------0----0-4-5------3-------5------0---|-
G:-|---3--------5-----3------0----0-2-5------3-------5------0---|-
C:-|---3--------5------------0--------5------3-------5------0---|-


Guitar 2:
Riff A:
d:-|----------------|-
A:-|----------------|-
F:-|----------------|-
C:-|--7--7b(6)------|-
G:-|-----------5----|-
C:-|----------------|-


Guitar 3: (over guitar 1, riff A over riff A)
Riff A:
       w/wah
d:-|-------------------------------------------|--------|-
A:-|-----10~----------------10~-----10-14-10---|--------|-
F:-|--10----12-10-9~-----10------12------------|---7~---|-
C:-|-------------------------------------------|--------|-
G:-|-------------------------------------------|--------|-
C:-|-------------------------------------------|--------|-     
Добавлено: 02.10.2013
Другие материалы по этой песне:

Страница создана 21.03.2012
http://primanota.ru/jerry-cantrell/psychotic-break-chords.htm
Привет, Гость.
Предлагаем пройти революционный курс по гитаре.
Подарок от PrimaNota.Ru, забирай!