PrimaNota.ru - самый крупный в мире бесплатный архив песенных текстов, аккордов, табулатур и нот


Jerry Cantrell - Locked On - текст песни, таба, бас-таба, видео

Регистрация Запомнить меня
Войти через:  Facebook Google Twitter Vk Yandex Mail.ru

Jerry Cantrell - Locked On - текст песни, таба, бас-таба, видео

Печатать
Просмотров: 119


Jerry Cantrell - Locked On
From the Album: Degradation Trip
Rob Taylor - taylo2222@yahoo.com

This is my first stab at doing a tab.  I love this album and hopefully will be
posting more songs from it.

Tune down one whole step.  With heavy Wah.  The b means bend and it is really
a sharp strattle.  Did not know how to correctly note that.  Pay close attention
to each bar below.  There are subtle changes in the chords on the A/D strings.

E -------------------------------------------------------------------------------------
B -------------------------------------------------------------------------------------
G -------------------------------------------------------------------------------------
D -------3--6-----8------------------------------6-6-6-6-3-6-8---------3--6--8---------
A -6--4--1--4-----6--6b---4----4-4-4-4-4-4-4-4---4-4-4-4-1-4-6--6b--4--1--4--6--6b--4--
E -4--2--------------4b---2----2-2-2-2-2-2-2-2------------------4b--2-----------4b--2--


E -------------------------------------------------------------------------------------
B -------------------------------------------------------------------------------------
G -------------------------------------------------------------------------------------
D ------------------6-6-6-3-6-8----------3--6--8---------------------------------------
A 4-4-4-4-4-4-4-4---4-4-4-1-4-6---6b--4--1--4--6--6b--4-4-4-4-4-4-4-4-4----------------
E 2-2-2-2-2-2-2-2-----------------4b--2-----------4b--2-2-2-2-2-2-2-2-2----------------


E -------------------------------------------------------------------------------------
B -------------------------------------------------------------------------------------
G -------------------------------------------------------------------------------------
D ------------------6-6-6-3-6-8----------3--6--8---------------------------------------
A 4-4-4-4-4-4-4-4---4-4-4-1-4-6---6b--4--1--4--6--6b--4-4-4-4-4-4-4-4-4----------------
E 2-2-2-2-2-2-2-2-----------------4b--2-----------4b--2-2-2-2-2-2-2-2-2----------------


E -------------------------------------------------------------------------------------
B -------------------------------------------------------------------------------------
G -------------------------------------------------------------------------------------
D ------------------6-6-6-3-----8----------3--6--8-------------------------------------
A 4-4-4-4-4-4-4-4---4-4-4-1-----6---6b--4--1--4--6--6b--4-4-4-4-4-4-4-4-4--------------
E 2-2-2-2-2-2-2-2-------------------4b--2-----------4b--2-2-2-2-2-2-2-2-2--------------

Добавлено: 16.10.2013
Другие материалы по этой песне:

Страница создана 23.02.2012
http://primanota.ru/jerry-cantrell/locked-on-chords.htm
Привет, Гость.
Предлагаем пройти революционный курс по гитаре.
Подарок от PrimaNota.Ru, забирай!