PrimaNota.ru - самый крупный в мире бесплатный архив песенных текстов, аккордов, табулатур и нот


Jerry Cantrell - Leave Me Alone - аккорды и текст, таба, бас-таба, видео

Регистрация Запомнить меня
Войти через:  Facebook Google Twitter Vk Yandex Mail.ru

Jerry Cantrell - Leave Me Alone - аккорды и текст, таба, бас-таба, видео

Печатать
Просмотров: 171
Leave Me Alone
Jerry Cantrell
		   From Sheanabean@aol.com Wed Apr 16 10:50:48 1997

Song: Leave Me Alone
Artist: Jerry Cantrell
Album: Cable Guy Soundtrack
Written by: Jerry Cantrell


Tune down strings a half step: 1-Eb, 2-Bb, 3-Gb, 4-Db, 5-Ab, 6-Eb
     E  D                     C#          A C# A E  D                    C#
         A C# A
E|----------------------------------------------------------------------------
-------------------------------
B|----------------------------------------------------------------------------
-------------------------------
G|------7--7--7--7--7--7--4--6--6--6-----------------7--7--7--7--7--7--4--6--6
--6-------------
D|------X--X--X--X--X--X--4--6--6--6-----------------X--X--X--X--X--X--4--6--6
--6-------------
A|--2--5--5--5--5--5--5--4--4--4--4--0--4--0--2--5--5--5--5--5--5--4--4--4--4-
-0--4--0--
E|--0---------------------------------------------------0---------------------
------------------------------

That's most of the song. I haven't figured out the chorus yet.

Transcribed by Sheanabean@aol.com
From Roselady@cinci.net Thu May 15 16:52:14 1997

"Leave me Alone" by Jerry Cantrell
from The Cable Guy Soundtrack

Sean Kinney: Drums
Jerry Cantrell: Everything Else

    This song is a fine example of how Alice In Chains is going to sound
after Layne Staley dies.  This is a simple song, but it's very good, and
it shows how versatile Jerry Cantrell really is.

Tuning (as always for Jerry) is down 1/2 step

Intro / Verse

    Em
Eb:------------------------------------------------------------------
Bb:------------------------------------------------------------------
Gb:----7--6--2-2-2---------------------------------------------------
Db:-2--7--6--2-2-2-2-------------------------------------------------
Ab:-2--5--4--0-4-0-2-------------------------------------------------
Eb:-0--------------0-------------------------------------------------

Chorus:

Eb:-----------------------------------------------------------------------
Bb:-----------------------------------------------------------------------
Gb:-----------------------------------------------------------------------
Db:-5---------------------------7----------------------------------5------
Ab:-5---------------------------7----------------------------------5------
Eb:-3---------------------------5----------------------------------3------
   "Don't come over here when I say... Don't come over here when I
say..."

Play a 12 on the B string for the lead on the chorus.

For that little solo, lay the wah on heavy and mess with pinch harmonics
on the 5th fret of the Ab string.

Well that's about it. If you need anything by Pearl Jam, AIC or other
such
bands tabbed out, drop me a line at XKCW87B@prodigy.com.

                                        Later,
                                               JJ     
Добавлено: 10.07.2013
Другие материалы по этой песне:
  • Аккорды и текст

Страница создана 24.05.2012
http://primanota.ru/jerry-cantrell/leave-me-alone-chords.htm
Привет, Гость.
Предлагаем пройти революционный курс по гитаре.
Подарок от PrimaNota.Ru, забирай!