PrimaNota.ru - самый крупный в мире бесплатный архив песенных текстов, аккордов, табулатур и нот


Jerry Cantrell - Bargain Basement Howard Hughes - текст песни, таба, бас-таба, видео

Регистрация Запомнить меня
Войти через:  Facebook Google Twitter Vk Yandex Mail.ru

Jerry Cantrell - Bargain Basement Howard Hughes - текст песни, таба, бас-таба, видео

Печатать
Просмотров: 137
Bargain Basement
Jerry Cantrell
Degradation Trip

Tabbed by: Ryan
Email: Whiterabbit6573@aol.com

Tuning: Drop D, E Flat Tuning 

Intro

eb|---------------------------|
Bb|---------------------------|
Gb|--6/7----------------------|
Db|--6/7--555555--------------|
Ab|--4/5--555555-0------------|
Eb|-------555555-0------------|


eb|------|-----------------------------------------------------|
Bb|------|-----------------------------------------------------|
Gb|------|-----------------------------------------------------|
Db|-5----|-----------------------------------------------------|
Ab|-5--5-|----0--0---/3---6--5--3--0--/3--6--5--0--0-----------|
Eb|-3--5-|----0--0---/3---6--5--3--0--/3--6--5--0--0-----------|


eb||:------------------------------------------------------------||
Bb||:------------------------------------------------------------||
Gb||:------------------------------------------------------------||
Db||:------------------------------------------------------------||
Ab||:---0—3h5--0-----0—3h5-6-------------------------------------||
Eb||:---0—3h5--0-----0—3h5-6-------------------------------------||




| /  slide up
| \  slide down
| h  hammer-on
| p  pull-off
| ~  vibrato
| +  harmonic
| x  Mute note
===============================================================================
Добавлено: 27.02.2012
Другие материалы по этой песне:

Страница создана 27.02.2012
http://primanota.ru/jerry-cantrell/bargain-basement-howard-hughes-chords.htm
Привет, Гость.
Предлагаем пройти революционный курс по гитаре.
Подарок от PrimaNota.Ru, забирай!