PrimaNota.ru - самый крупный в мире бесплатный архив песенных текстов, аккордов, табулатур и нот


Jerry Cantrell - Angel Eyes - аккорды и текст, таба, видео

Регистрация Запомнить меня
Войти через:  Facebook Google Twitter Vk Yandex Mail.ru

Jerry Cantrell - Angel Eyes - аккорды и текст, таба, видео

Печатать
Просмотров: 294
Уроки эстрадного вокала в Санкт-Петербурге
Angel Eyes
Jerry Cantrell
		   Tuning : 1/2 step down   Eb,Ab,Db,Gb,Bb,eb

Notation:
--7b(9)---- bend 1 step
--7b(9-9)-- bend 1 step and pick while holding the bend
--7b(9r7)-- bend 1 step and release to first position (pick only before bend)
--7h9------ hammer on
--9p7------ pull off
--7/9-----  slide from 7 to 9
-7-/9-----  pick 7 then rest then slide
AH          pinched harmonics
harm        natural harmonics
pm          palm mute
/\/\/\/\    wide vibrato with tremolo bar
    very fast and wery wide vibrato with tremolo bar
~~~~~~~~    vibrato with fret hand
wah:  o     open pedal (bass)
      +     closed pedal (treble)

Intro: goes 2 times
eb:-|-----------------------------------------------------------|-
Bb:-|----------2--2-x-------------------------------------------|-
Gb:-|--8--8-8--3--3-x--6--6---4--4-4-4--5-5--5-5-5-5--5-5-------|-
Db:-|--8--8-8--4--4-x--6--6---4--4-4-4--6-6--6-6-6-6--6-6-------|-
Ab:-|--6--6-6--4--4-x--4--4---2--2-2-2--6-6--6-6-6-6--6-6-------|-
Eb:-|--6--6-6--2--2-x-------------------4-4--4-4-4-4--4-4-------|-

Guitar 2: intro ending
eb:-|-------------------------|-
Bb:-|-------------------------|-
Gb:-|--xx-8\--xx-8\-----------|-
Db:-|--xx-8\--xx-8\-----------|-
Ab:-|-----6\-----6\-----------|-
Eb:-|-------------------------|-

Riff B: aaah part
      (not correct! but the notes are all right, strumming and sliding is different!)
eb:-|----------------------------------|-
Bb:-|----------------------------------|-
Gb:-|----------------------------------|-
Db:-|--6/8-8--6/8--6/8--6/8--6/8\6-----|-
Ab:-|--4/6-6--4/6--4/6--4/6--4/6\4-6---|-
Eb:-|------------------------------4---|-

before singing (verse)
eb:-|---------------------|-
Bb:-|---------------------|-
Gb:-|-----------------8---|-
Db:-|---6--8-8-8--6---8---|-
Ab:-|---6--8-8-8--6---6---|-
Eb:-|---4--6-6-6--4---6---|-

Verse riff: acoustic guitar
eb:-|-----------------------------------------------------------|-
Bb:-|----------2--2-x-------------------------------------------|-
Gb:-|--8--8-8--3--3-x--6--6---4--4-4-4--5-5--5-5-5-5--5-5-------|-
Db:-|--8--8-8--4--4-x--6--6---4--4-4-4--6-6--6-6-6-6--6-6-------|-
Ab:-|--6--6-6--4--4-x--4--4---2--2-2-2--6-6--6-6-6-6--6-6-------|-
Eb:-|--6--6-6--2--2-x-------------------4-4--4-4-4-4--4-4-------|-

Riff C: (get it on...)
eb:-|----------------------------------------------|--------------------------------|-
Bb:-|----------------------------------------------|--------------------------------|-
Gb:-|----------------------------------------------|--------------------------------|-
Db:-|----------------------------------------------|--------------------------------|-
Ab:-|----------------------------------------------|--------------------------------|-
Eb:-|--4-2-0----4-6--6b(7)r6-6-4-6--4-6-4-6-6b(7)--|--4-2-0----4-6-4-6b(7)r6b(7)r6--|-

Chorus:
eb:-|-------------------------|-
Bb:-|-------------------------|-
Gb:-|-----------------9-------|-
Db:-|--6--------------9-------|-
Ab:-|--6-------6/7----7-------|-
Eb:-|--4-----------0--0-------|-     
Добавлено: 22.07.2013
Другие материалы по этой песне:
  • Аккорды и текст

Страница создана 31.05.2012
http://primanota.ru/jerry-cantrell/angel-eyes-chords.htm
Привет, Гость.
Предлагаем пройти революционный курс по гитаре.
Подарок от PrimaNota.Ru, забирай!