PrimaNota.ru - самый крупный в мире бесплатный архив песенных текстов, аккордов, табулатур и нот


Jeronimo - Ma Femme Me Trompe - таба, видео

Регистрация Запомнить меня
Войти через:  Facebook Google Twitter Vk Yandex Mail.ru

Jeronimo - Ma Femme Me Trompe - таба, видео

Печатать
Просмотров: 202
JERONIMO
Ma Femme Me Trompe




Guitar Tab (cool_rom). This is the text version of the GP5 tab I made.

Link to official Jeronimo website:
http://www.jeronimo.be/site1/index.html

_______________________________________________________________________



1.LEAD GUITAR
------------

 INTRO RIFF (Before singing starts)
 __________________________________

 E|--------7-----------7-----|--------7-----------7------|
 B|-----7-----7-----7-----7--|-----7-----7-----7-----7---|
 G|--4-----------6-----------|--7-----------7------------|
 D|--------------------------|---------------------------|
 A|--------------------------|---------------------------|
 E|--------------------------|---------------------------|

 ----------7-----------7-----|--------0-----------0------|
 -------7-----7-----7-----7--|-----0-----0-----0-----2---|
 ----4-----------6-----------|--1-----------1------------|
 ----------------------------|---------------------------|
 ----------------------------|---------------------------|
 ----------------------------|---------------------------|




 CHORUS/REFRAIN
 ______________

 E|--------7-----------7-----|--------7-----------7------|
 B|-----7-----7-----7-----7--|-----7-----7-----7-----7---|
 G|--4-----------6-----------|--7-----------7------------|
 D|--------------------------|---------------------------|
 A|--------------------------|---------------------------|
 E|--------------------------|---------------------------|

 ----------7-----------7-----|--------0-----------0------|
 -------7-----7-----7-----7--|-----0-----0-----0-----0---|
 ----4-----------6-----------|--1-----------1------------|
 ----------------------------|---------------------------|
 ----------------------------|---------------------------|
 ----------------------------|---------------------------|

 ----------7-----------7-----|--------7-----------7------|
 -------7-----7-----7-----7--|-----7-----7-----7-----7---|
 ----4-----------6-----------|--7-----------7------------|
 ----------------------------|---------------------------|
 ----------------------------|---------------------------|
 ----------------------------|---------------------------|

 ----------7-----------7-----|--------10------------10----|
 -------7-----7-----7-----7--|-----9------9------9------9-|
 ----8-----------9-----------|-11------------11-----------|
 ----------------------------|----------------------------|
 ----------------------------|----------------------------|
 ----------------------------|----------------------------|




 VERSE/COUPLET
 _____________

 E|--------7-----------7-----|--------7-----------7------|
 B|-----7-----7-----7-----7--|-----7-----7-----7-----7---|
 G|--4-----------6-----------|--7-----------7------------|
 D|--------------------------|---------------------------|
 A|--------------------------|---------------------------|
 E|--------------------------|---------------------------|

 ----------7-----------7-----|--------10------------10----|
 -------7-----7-----7-----7--|-----9------9------9------9-|
 ----8-----------9-----------|-11------------11-----------|
 ----------------------------|----------------------------|
 ----------------------------|----------------------------|
 ----------------------------|----------------------------|


 The song:
 INTRO > CHORUS > VERSE > CHORUS > VERSE > CHORUS(4 times)




__________________________________________________________


2.RYTHM GUITAR
-------------


 The rythm guitar is playing this riff the whole song:

 E|----------------------------|------------------------------|
 B|----------------------------|------------------------------|
 G|--4--4--4--4-4-2--2--2--2-2-|------------------------------|
 D|--4--4--4--4-4-2--2--2--2-2-|--2--2--2--2-2-2--2-2-2s-4-4--|
 A|--2--2--2--2-2-0--0--0--0-0-|--2--2--2--2-2-2--2-2-2s-4-4--|
 E|----------------------------|--0--0--0--0-0-0--0-0-0s-2-2--|

Chords:    B           A                   E              B



Have fun!
Добавлено: 03.07.2012
Другие материалы по этой песне:

Страница создана 11.04.2012
http://primanota.ru/jeronimo/ma-femme-me-trompe-chords.htm
Привет, Гость.
Предлагаем пройти революционный курс по гитаре.
Подарок от PrimaNota.Ru, забирай!