PrimaNota.ru - самый крупный в мире бесплатный архив песенных текстов, аккордов, табулатур и нот


Jerome - Eat The Gun - таба, видео

Регистрация Запомнить меня
Войти через:  Facebook Google Twitter Vk Yandex Mail.ru

Jerome - Eat The Gun - таба, видео

Печатать
Просмотров: 108
Jerome(http://www.myspace.com/jeromecore)
Eat The Gun
Drop A
Tabber: Anthony Buck
.=Palm Mute
h=Hammer On
p=Pull Off
~=Sustain Note(s)
/=Slide
"=Tremolo Pick

http://www.youtube.com/watch?v=FWSwwAa6AI8


|--------------------|
|--------------------|
|--------------------|
|--------------------|
|----5-4----5\1----4-|
|-00-----00-----00---|x4
  ..     ..     ..

Harmony:

|--------------------|
|--------------------|
|--------------------|
|--------------------|
|----7-6----7\4----6-|
|-00-----00-----00---|play on the second time.
  ..     ..     ..

FIRST YOU HUNT THEM DOWN!


|----------------------------------------------|
|----------------------------------------------|
|----------------------------------------------|
|----------------------------------------------|
|----5-5----8-8----7----4-4----4h5p4-1-4-1-----|
|-00-----00-----00---00-----00-------------1-4-|x4
  ..     ..     ..   ..     ..

Harmony:

|-------------------------------------------------|
|-------------------------------------------------|
|-------------------------------------------------|
|-------------------------------------------------|
|----8-8----11-11----10----7-7----7h8p7-4-7-4-----|
|-00-----00-------00----00-----00-------------4-7-|play on the third time.
  ..     ..       ..    ..     ..


|---|
|---|
|---|
|---|
|-0-|
|-0-| *drum fill*
  .


"I, I'll let you know, when I move on"
|------------------------------------------|
|------------------------------------------|
|------------------------------------------|
|----4---4----7---7----6-------------------|
|----6---6----9---9----8--111-1-1-1-1-1-1--|
|-00---0---00---0---00----000-0-0-0-0-0-0--|
  ..   .   ..   .   ..    ... . . . . . .


|-------------------|        
|-------------------|
|-------------------|
|-------------------|
|-4h5p4-1-4-1-------|
|-------------4-1-0-|x4    


Harmony:

|-------------------|
|-------------------|
|-------------------|
|-------------------|
|-7h8p7-4-7-4-------|
|-------------7-4-0-|Play on the second and forth time.


"I'll slit your throat, and your stomache"

|-------------------|
|-------------------|
|-------------------|
|-------------------|
|-5-4-1---4-1-0-----|
|-5-4-1---4-1-0-----|x4
  . . .   . . .

"I am not the anti-christ..."

|---------------------|
|---------------------|
|---------------------|
|---------------------|
|-5-4-1~---4-1-0~-----|
|-5-4-1~---4-1-0~-----|x4
  . .      . .

"Let me see your fucking face"

|----------------------------------|
|----------------------------------|
|----------------------------------|
|----------------------------------|
|-11-22-4--11-22-4--0-00--00-00----|
|-11-22-4--11-22-4--0-00--00-00----|x4
  .. .. .  .. .. .  . ..  .. ..

*solo* (sorry, don't know the solo)

|------------------------------------|
|------------------------------------|
|------------------------------------|
|------------------------------------|
|-11-22-4~--11-22-4~--4-44--44-44----|
|-11-22-4~--11-22-4~--4-44--44-44----|x8(4 times during the solo, 4 times after)
  .. .. .   .. .. .   . ..  .. ..

|-----------------------|
|-----------------------|
|-----------------------|
|-8~---7~----4~----0~---|
|-5~---4~----1~----0~---|
|-5~---4~----1~----0~---|x2

|---------------------------------------------|
|---------------------------------------------|
|---------------------------------------------|
|-88888888-8/7-7777-------444444-----00000000-|
|-55555555-5/4-4444--1-0--111111-1-0-00000000-|
|-55555555-5/4-4444--1-0--111111-1-0-00000000-|x2
                     . .         . .

|---------------------------|
|---------------------------|
|---------------------------|
|----4"----5"----4"----1"---|
|---------------------------|
|-5"----4"----1"----0"------|x2

Harmony:
|---------------------------|
|---------------------------|
|---------------------------|
|----7"----8"----7"----4"---|
|---------------------------|
|-5"----4"----1"----0"------|play on the second time.

"Slit your fucking throat"

|---------------|
|---------------|
|---------------|
|---------------|
|-000~--000~----|
|-000~--000~----|x4
  ...   ...

EAT THE FUCKING GUN!

|---------------|
|---------------|
|---------------|
|---------------|
|-000~--000~----|
|-111~--111~----|x4
  ...   ...

"OH!! Oh, these bones"

|---------------|
|---------------|
|---------------|
|---------------|
|-111---111-----|
|-222---222-----|x4
  ...   ...

End on,

|---|
|---|
|---|
|---|
|-1-|
|-1-|
Добавлено: 21.07.2012
Другие материалы по этой песне:

Страница создана 16.03.2012
http://primanota.ru/jerome/eat-the-gun-chords.htm
Привет, Гость.
Предлагаем пройти революционный курс по гитаре.
Подарок от PrimaNota.Ru, забирай!