PrimaNota.ru - самый крупный в мире бесплатный архив песенных текстов, аккордов, табулатур и нот


Jerome Abalos - Bukas Ngayon At Magpakailanman - таба, видео

Регистрация Запомнить меня
Войти через:  Facebook Google Twitter Vk Yandex Mail.ru

Jerome Abalos - Bukas Ngayon At Magpakailanman - таба, видео

Печатать
Просмотров: 78
-------------------------------------------------------------------------------
                             SONG NAME - Band Name
-------------------------------------------------------------------------------
Tabbed by:romulo manzano jr
E-mail:stylishup@guitar.com

Tuning:standard

intro
e|--0-------5-------2-3---5-3-3-2-2----------------2h3-2---------------------------------|
B|--3---3---3---0-3-------0-0-0-0-0---3-3-1-1-0-0--------5-3-3/5----2h3-2-----2h3-2------|
G|----2---3---2-----------------------0-0-0-0-0-0------------0------------4-2-------4-2--|
D|--0-------0-------------------------0-0-0-0-0-0-----------------2----------------------|
A|------------------------2-----2----------------------------0---------------------------|
E|------------------------------------3---3---3------------------------------------------|

verse
e|--0-------0-----0------0---------0----------0---------0----------0--|
B|--3---3---3---3---3----3-----3---3-----3----3-----3---3-----3----3--|
G|----2---2---2-------2------2---2-----2---2------0---0-----0---0-----|
D|--0-------0-----0--------0---------0----------0---------0-----------|
A|-----------------------2---------2----------------------------------|
E|--------------------------------------------3---------3-------------|

e|--0---------0--------------------------------------------------------------------|
B|--3-----3---3-----2--------------------------------------------------------------|
G|------2---2-----2---2------------------------------------------------------------|
D|----2---------2------------------------------------------------------------------|
A|--0---------0-----0--------------------------------------------------------------|
E|---------------------------------------------------------------------------------|

repeat

refrain
e|--0---------0----------0---------0----------0----------0----------|
B|--3-----3---3-----3----3-----3---3-----3----3-----3----3------3---|
G|------2---2-----2---2------0---0-----2---2------2---2------2---2--|
D|----0---------2----------0---------0----------0----------2--------|
A|--2---------0-------------------------------2----------0----------|
E|-----------------------3---------2--------------------------------|

e|--0---------0----------0-----------------0-------------------------------------------|
B|--3-----3---3-----3----3-----3----2---3----------------------------------------------|
G|------0---0-----0---0------2---2----2------------------------------------------------|
D|----0---------0----------2-----------------------------------------------------------|
A|-----------------------0----------0---0--0-------------------------------------------|
E|--3---------3------------------------------------------------------------------------|

chorus
e|--0-----0------0-----0------2-----2-------------2------3-----3------3-----3------|
B|--3---3---3----3-------3----3-------3----2h3------3----3-------3----3-------3----|
G|----2-------2------2-----2------4-----4--4----4-----4------0-----0------2-----2--|
D|--0-----0--------2------------4-------------4------------0------------0----------|
A|---------------0-----0------2-----2------2------2--------------------------------|
E|-------------------------------------------------------3-----3------2-----2------|

e|--3-----0------------0------------------------------------------------------------|
B|--3-------3---2---3---------------------------------------------------------------|
G|------2-----2---2-----------------------------------------------------------------|
D|----2-----------------------------------------------------------------------------|
A|--0-----0-----0---0--0------------------------------------------------------------|
E|----------------------------------------------------------------------------------|

repeat except in last part at A chord

e|--3-----0---------0--------------------------------------------------------------|
B|--3-------3---2-----2------------------------------------------------------------|
G|------2-----2---2-----2----------------------------------------------------------|
D|----2----------------------------------------------------------------------------|
A|--0-----------0---0--------------------------------------------------------------|
E|---------------------------------------------------------------------------------|

do chorus for intro 1x only
 then do the tabs of verse for part 2 1x only
then repeat refrain and chorus
then do tabs of chorus for adlib 1x only
repeat refrain
and last part for chorus strum and higher in whole notes

************************************

| /   slide up
| \   slide down
| h   hammer-on
| p   pull-off
| ~   vibrato
| +   harmonic
| x   Mute note
| b   Bend
| pb  Pre-bend
| br  Bend release
| pbr Pre-bend release
| brb Bend release bend

************************************
Добавлено: 12.08.2015
Другие материалы по этой песне:
  • Аккорды и текст

Страница создана 12.08.2015
http://primanota.ru/jerome-abalos/bukas-ngayon-at-magpakailanman-chords.htm
Привет, Гость.
Предлагаем пройти революционный курс по гитаре.
Подарок от PrimaNota.Ru, забирай!