PrimaNota.ru - самый крупный в мире бесплатный архив песенных текстов, аккордов, табулатур и нот


Jerkstore - June - таба, видео

Регистрация Запомнить меня
Войти через:  Facebook Google Twitter Vk Yandex Mail.ru

Jerkstore - June - таба, видео

Печатать
Просмотров: 85
Jerkstore:
June - Sentimental Breezes


Normal Tuning

Intro:
E  -1-1-1-1--0-0-0-0--3-3-3-3-3-3-3-3---1-1-1-1--0-0-0-0--3-3-3-3-3-3-3-3-
B  -1-1-1-1--1-1-1-1--1-1-1-1-1-1-1-1---1-1-1-1--1-1-1-1--1-1-1-1-1-1-1-1-
G  -----------------------------------------------------------------------
D  -----------------------------------------------------------------------
A  -----------------------------------------------------------------------
E  -----------------------------------------------------------------------

Verse:
E  -----------------------------------------------------------------------
B  -----------------------------------------------------------------------
G  -10-10-10-10---9-9-9-9-------------------------------------------------
D  -10-10-10-10---9-9-9-9---8-8-8-8---10-10-10-10-------------------------
A  --8--8--8--8---7-7-7-7---8-8-8-8---10-10-10-10-------------------------
E  -------------------------6-6-6-6----8--8--8--8-------------------------
     "The summer months go without a trace . . . "

Chorus:
E  -----------------------------------------------------------------------
B  -----------------------------------------------------------------------
G  -------------------7-7-7-7-7-7-7-7---8-8-8-8-8-8-8-8-------------------
D  -3-3-3-3-3-3-3-3---7-7-7-7-7-7-7-7---8-8-8-8-8-8-8-8---8-8-8-8-8-8-8-8-
A  -3-3-3-3-3-3-3-3---5-5-5-5-5-5-5-5---6-6-6-6-6-6-6-6---8-8-8-8-8-8-8-8-
E  -1-1-1-1-1-1-1-1---------------------------------------6-6-6-6-6-6-6-6-
    "June . . .  . . .  . . . . . . . . . . . . .She's coming soon" 

E ------------------------------------------------------------------------
B ------------------------------------------------------------------------
G ------------------------------------------------------------------------
D -10-10-10-10-10-10-10-10-10-10-10-10-10-10-10-10------------------------
A -10-10-10-10-10-10-10-10-10-10-10-10-10-10-10-10------------------------
E --8--8--8--8--8--8--8--8--8--8--8--8--8--8--8--8------------------------
"(And she's) gone . . . "

INTRO
VERSE
CHORUS
     
Добавлено: 19.10.2013
Другие материалы по этой песне:
  • Аккорды и текст

Страница создана 19.10.2013
http://primanota.ru/jerkstore/june-chords.htm
Привет, Гость.
Предлагаем пройти революционный курс по гитаре.
Подарок от PrimaNota.Ru, забирай!